Song name
# A B C D E F G H I J K L M N O P Q R S T U V W X Y Z

Go-betweens - Surfing Magazines tab

SURFING MAGAZINES - THE GO-BETWEENS

STANDARD TUNING

Intro/Main riff (repeated):

e------------------------------------------------------------------|
B----10--10--10--10--7---7---7---7---5---5---5---5---3---3---3---3-|
G------11------11------8-------8-------6-------6-------4-------4---|
D--12------12------9-------9-------7-------7-------5-------5-------|
A------------------------------------------------------------------|
E------------------------------------------------------------------|

Chorus/Da da:
I haven't been able to figure out the sliding riff but these are the chords.
   D    A    G (x2)
e--5----5----3----|
B--7----5----3----|
G--7----6----4----|
D--7----7----5----|
A--5----7----5----|
E-------5----3----|
Tap to rate this tab
# A B C D E F G H I J K L M N O P Q R S T U V W X Y Z