Song name
# A B C D E F G H I J K L M N O P Q R S T U V W X Y Z

Go Big Casino - Two Serenades tab

Title: Two Serenades
Arist: Go Big Casino (Jim Adkins)
Album: (unreleased)

Tabbed by: Jason Pack

I'm guessing you know what Go Big Casino is if you are looking for 
this song. If you don't, www.gobigcasino.net (unaffiliated with me)
is only place I know of that has any info about the project. 
Enjoy the tab.

Tuning: Drop D (DADGBE)


Intro_____________
e|-0---------0----0-0-0-0-0-0-0-0-0-0-0-0-0-0-0-0------------------|
B|--0--------0----0-0-0-0-0-0-0-0-0-0-0-0-0-0-0-0------------------|
G|---2-------2----2-2-2-2-2-2-2-2-2-2-2-2-2-2-2-2------------------|
D|----2------2----2-2-2-2-2-2-2-2-2-2-2-2-2-2-2-2------------------|
A|-----0-0-0-0--0-0-0-0-0-0-0-0-0-0-0-0-0-0-0-0-0------------------|
D|-----------------------------------------------------------------|

Verse______________

Guitar 1: verse 1 and most of verse (actually a guitar)
e|-----------------------------|-------0-----------0---------------|
B|-------0-----------0---------|-----------------------------------|
G|-----2---2-------2---2-------|-----2---2-------2---2-------------|
D|---2-------2---2-------2-----|---2-------2---2-------2-----------|
A|-0-----------0-----------0---|-0-----------0-----------0---------|
D|-----------------------------|-----------------------------------|
 .	x8 measures	       .       x8 measures		   .

Guitar 1: last 2 measures of verse 2 (xylophone or something)
e|-----------------------------|-------0-----------0---------------|
B|-------0-----------0---------|-----------------------------------|
G|-----2---2-------2---2-------|---------2-----------2-------------|
D|---2-------2---2-------2-----|---2-2-----2---2-2-----2-----------|
A|-0-----------0-----------0---|-0-----------0-----------0---------|
D|-----------------------------|-----------------------------------|
 .	x8 measures	       .       x8 measures		   .



Guitar 2: same for all verses
e|---------0-0-0-------------0-0-0----------0----------------------|
B|---------0-0-0-------------0-0-0------3---3-3--------------------|
G|---------9-9-9---------4---4-4-4------2-2-2-2--------------------|
D|-------7-7-7-7---------2-2-2-2-2------0-0-0-0-0------------------|
A|-7---7-7-7-7-7---2---2-2-2-2-2-2---0----0-0---0------------------|
D|-7---7-7-7-7-7---2---2---2-2-2-2---0------0----------------------|

Chorus_____________

Guitar 1: continue playing verse part

Guitar 2:
E|-----------------|------------------------------------------|
B|-----------------|------------------------------------------|
G|-6-6-6-6-6--6-6--|-9-9-9---9-9-9-9-9-9-9-9-9-9-9-9-9-9-9-9--|
D|-4-4-4-4-4--4-4--|-7-7-7---7-7-7-7-7-7-7-7-7-7-7-7-7-7-7-7--|
A|-4-4-4-4-4--4-4--|-7-7-7---7-7-7-7-7-7-7-7-7-7-7-7-7-7-7-7--|
D|-4-4-4-4-4--4-4--|-7-7-7---7-7-7-7-7-7-7-7-7-7-7-7-7-7-7-7--|

e|-----------0-0-0----------0----------------------|
B|-----------0-0-0------3---3-3--------------------|
G|-------4---4-4-4------2-2-2-2--------------------|
D|-------2-2-2-2-2------0-0-0-0-0------------------|
A|-2---2-2-2-2-2-2---0----0-0---0------------------|
D|-2---2---2-2-2-2---0------0----------------------|

Repeat the above bits then 
E|-------0---0-----|
B|-------3---3-----|
G|-4-4---2-2-2-----|
D|-2-2-0-0-0-0-----|
A|-2-2-0---0-0-----|
D|-2-2-0-----------|

Bridge__________________

Guitar 2 just plays through this chord progression:
E|-------------0----------|
B|-------------3----------|
G|-9---4---6---2----------|
D|-7---2---4---0----------|
A|-7---2---4---0----------|
D|-7---2---4---0----------|
Tap to rate this tab
# A B C D E F G H I J K L M N O P Q R S T U V W X Y Z