Song name
# A B C D E F G H I J K L M N O P Q R S T U V W X Y Z

Go Crash Audio - From Here To California tab

go crash audio isn't very big yet.
but their songs are pretty good.
everybody should check them out.
and i thought i'd tab this song.
soooo, yea.

. - palm mute
~ - let ring

GUITAR ONE

Intro:
no guitar one

Verse:
no guitar one for the first part
then it comes in with
e|--8-------------|
B|-----9~-----9~--|
G|---------6------|
D|----------------|  5x
A|----------------|
E|----------------|

e|--8-----8----------8~------|
B|----9-----9---9----9~--9~--|
G|------6-----6------6~--6~--|
D|-----------------------8~--|  Play all that 2x
A|---------------------------|
E|---------------------------|

Pre-Chorus:
e|--8~-xx--x-xx--|
B|--9~-xx--x-xx--|
G|--6~-xx--x-xx--|
D|-----xx--x-xx--|
A|-----xx--x-xx--|
E|-----xx--x-xx--|

Chorus:
First time the same as guitar two
Second time
e|--8----8-------|
B|----9----9--9--|
G|------6---6----|
D|---------------|  2x
A|---------------|
E|---------------|
then it goes back to what guitar two is playing

Verse
Pre-Chorus
Chorus

Bridge:
e|--------------|
B|----6---------|
G|---6-6--(8x)--|
D|--8-----------|
A|--------------|
E|--------------|

e|----------------------------------------------------|
B|----6-----------4-----------4------------4----------|
G|---6-6--(2x)---6-6--(2x)---1-1---(2x)---6-6---(2x)--|
D|--8-----------6-----------3---3--------4---4--------|  4x
A|----------------------------------------------------|
E|----------------------------------------------------|

e|--4~--|
B|--4~--|
G|--6~--|
D|--6~--|
A|--4~--|
E|--4~--|

Interlude:
e|---8----8--------|
B|-----9----9---9--|
G|--6----6----6----|
D|-----------------|  8x
A|-----------------|
E|-----------------|

Outro:
e|--8~--|
B|--9~--|
G|--6~--|
D|------|  Play this as many times as needed.
A|------|
E|------|







GUITAR TWO

Intro:
e|----------|
B|--6-------|
G|--6-(8x)--|
D|--4-------|
A|----------|
E|----------|

Verse:
e|----------------------------------|
B|--6-------6-------6-------6-------|
G|--6-(4x)--6-------6-------6-------|
D|--4-------6-(4x)--x-(3x)--x-(5x)--|
A|----------x-------4-------6-------|
E|----------6-----------------------|

e|--------------------------|
B|--6-------6-------6-------|
G|--6-------6-------6-------|
D|--6-(4x)--x-(4x)--6-(8x)--| Play all that 2x
A|--x-------4-------x-------|
E|--6---------------4-------|

Then
e|--4~--4~--|
B|--6~--4~--|
G|--6~--6~--|
D|--4~--6~--|
A|--4~--4~--|
E|--4~--4~--|

Then the verse again.

Pre-Chorus:
e|--4--xx--x-xx--|
B|--4~-xx--x-xx--|
G|--6~-xx--x-xx--|
D|--6~-xx--x-xx--|
A|--4--xx--x-xx--|
E|--4--xx--x-xx--|

Chorus:
e|---------------------------------------------------|
B|---------------------------------------------------|
G|----------6-------3--------------------------------|
D|--4-------6-(4x)--3-(4x)--3--------4-------6-------| 2x
A|--4-(8x)--4-------1-------3-(2x)---4-(3x)--6-(8x)--|
E|--2-----------------------1--------2-------4-------|

Then
e|------|
B|------|
G|------|
D|--4~--|
A|--4~--|
E|--2~--|

Verse
Pre-Chorus
Chorus

Bridge:
e|----------------------------------|
B|----------------------------------|
G|----------------------------------|
D|--4-------6-------3-------4-------|  4x
A|--4-(8x)--6-(8x)--3-(8x)--4-(8x)--|
E|--2-------4-------1-------2-------|
    .       .       .       .

e|--4~--|
B|--4~--|
G|--6~--|
D|--6~--|
A|--4~--|
E|--4~--|

Interlude:
e|------------------|
B|------------------|
G|------------------|
D|--4-------6-------|  6x
A|--4-(8x)--6-(8x)--|
E|--2-------4-------|

Outro:
e|------|
B|------|
G|------|
D|--4~--|  Play this as many times as needed.
A|--4~--|
E|--2~--|




And that's it.
There's a third guitar.
I don't feel like tabbing it though.
ENJOY!

HOLLAAA!
heyskateboarder@aol.com
Tap to rate this tab
# A B C D E F G H I J K L M N O P Q R S T U V W X Y Z