Song name
# A B C D E F G H I J K L M N O P Q R S T U V W X Y Z

Go Gos - Skidmarks On My Heart tab

Skidmarks On My Heart
The Go Gos
Written by Charlotte Caffey/Belinda Carlisle
Tabbed by Dana P.


D / D


Verse 1:
 D
You sure know how to hurt a girl
 D
Fewer hugs and no more kisses
 C
Just water for your carburator
 C
And bearings for pistons
 D
Rev her engine for your pleasure
 D
Caress and fondle her steering wheel
 B
When you moan and hug her gear shift
 C                           D
Stop! Think how it makes me feel


Chorus:
D     C              D
Oh, skidmarks on my heart
        C         F
You've got me in fifth
         G             A
You're burning rubber like my love

(REPEAT)


Verse 2:
 D
Spend all your time and money 
 D
On that Pontiac GTO pile
 C
Getting tired of your greasy antics
 C
My pride's getting hurt by the mile
 D
Blow her engine blow my mind
 D
Keep her shocks and brakes aligned
B
I see that you're all jacked up
        C                     C
Leaving me and your exhaust behind


CHORUS


Solo:
e------------------|----------------|---------------|----------------|
B------------------|----------------|---------------|----------------|
G------------------|----------------|--0------------|--2-0-----------|
D-----2-0----------|--2-0-----------|----3-2-0---0--|------4-2-0-----|
A--0------3-2-0----|------3-2-0--3--|----------3----|-------------0--|
E---------------1--|----------------|---------------|----------------|

e---------------|----------------|-------------|--------------|
B---------------|----------------|-------------|--------------|
G---------------|----------------|--0----------|--2-0---------|
D--2-0----------|--2-0-----------|----3-2-0----|-------4-2-0--|
A------3-2-0----|------3-2-0--3--|----------3--|--------------|
E------------1--|----------------|-------------|--------------|
						  ^  4 times

D
I buy you cologne
D
You want axel grease
C
You say get a mechanic
C
I say get a shrink
D
I need promises
D
You want Motor Trend
B
Our love needs an overhaul
 C               D
This may be the end


CHORUS


Outro:
		     D  Dsus4  D  A
I'm driving in risk,
		     D  Dsus4  D  A
I'm driving in risk
		     D  Dsus4  D  A
I'm driving in risk
                 D
I'm driving in risk!

Tap to rate this tab
# A B C D E F G H I J K L M N O P Q R S T U V W X Y Z