Song name
# A B C D E F G H I J K L M N O P Q R S T U V W X Y Z

Go It Alone - Our Mistakes tab

Help us improve GuitareTab! Take a short survey!
-------------------------------------------------------------------------------
			     Our Mistakes - Go It Alone
-------------------------------------------------------------------------------
http://www.legitimatebros.com/main.php?pg=go_it_alone

Band: Go It Alone
Song: Our Mistakes (Intro)
Album: Vancouver Gold 
Tabbed by: Darkdallasnight

Tuning: Standard

e|--x-x-x-x-x-x-x-x-x-x-x-x-x-x-xxx-----|
B|--x-x-x-x-x-x-x-x-x-x-x-x-x-x-xxx-----| 
G|--4-4-4-4-4-4-4-4-4-4-4-7-7-5-555-----|    ( x 3)
D|--2-2-4-4-4-4-4-4-4-4-4-7-7-5-555-----|
A|--2-2-2-0-0-2-2-2-3-2-2-5-5-3-333-----|
E|--x-x-x-x-x-x-x-3-3-x-x-x-x-x-xxx-----|
 PM . . . . . . . . . . . . . . ..

e|--x-x-x-x-x-x-x-x-x-x-x-x-x-x-xxx-----|
B|--x-x-x-x-x-x-x-x-x-x-x-x-x-x-xxx-----| 
G|--4-4-4-4-4-4-4-4-4-4-4-7-7-5-555-----|    ( x 2)
D|--2-2-4-4-4-4-4-4-4-4-4-7-7-5-555-----|
A|--2-2-2-0-0-2-2-2-3-2-2-5-5-3-333-----|
E|--x-x-x-x-x-x-x-3-3-x-x-x-x-x-xxx-----|
 

| /  slide up
| \  slide down
| h  hammer-on
| p  pull-off
| ~  vibrato
| +  harmonic
| x  Mute note
===============================================================================
Related for Our Mistakes tab