Song name
# A B C D E F G H I J K L M N O P Q R S T U V W X Y Z

Go Radio - Winner Winner tab

Artist: Go Radio
Song: Winner Winner
Tabbed by: AJ Moran

_____________________________________________________________________________


[Verse]4x
(Strum, Listen for rhythm)
e ---------------------------------------------------------|
B ---------------------------------------------------------|
G ----------6~-------------------6~------------------------|
D --4~--6~--6~--6~-------4~--6~--6~------------------------|
A --4~--6~--4~--6~-------4~--6~--4~------------------------|
E --2~--4~------4~-------2~--4~----------------------------|

[Chorus]
(Listen for rhythm)
e --------------------------------------------------------------------|
B --------------------------------------------------------------------|
G -----------------------------------3-3-3-3-3-3-3-3--6-6-6-6-6-6-6-6-|
D -4-4-4-4-4-4-4-4--6-6-6-6-6-6-6-6--3-3-3-3-3-3-3-3--6-6-6-6-6-6-6-6-|
A -4-4-4-4-4-4-4-4--6-6-6-6-6-6-6-6--1-1-1-1-1-1-1-1--4-4-4-4-4-4-4-4-|
E -2-2-2-2-2-2-2-2--4-4-4-4-4-4-4-4-----------------------------------|

e --------------------------------------------------------------------|
B --------------------------------------------------------------------|
G ------------------6-6-6-6-6-6-x-x-------------------6-6-6-6-6-6-6-6-|
D -4-4-4-4-4-4-4-4--6-6-6-6-6-6-x-x--6-6-6-6-6-6-6-6--6-6-6-6-6-6-6-6-|
A -4-4-4-4-4-4-4-4--4-4-4-4-4-4-x-x--6-6-6-6-6-6-6-6--4-4-4-4-4-4-4-4-|
E -2-2-2-2-2-2-2-2-------------------4-4-4-4-4-4-4-4------------------|

e --------------------------------------------------------------------|
B --------------------------------------------------------------------|
G -----------------------------------3-3-3-3-3-3-3-3--6-6-6-6-6-6-6-6-|
D -4-4-4-4-4-4-4-4--6-6-6-6-6-6-6-6--3-3-3-3-3-3-3-3--6-6-6-6-6-6-6-6-|
A -4-4-4-4-4-4-4-4--6-6-6-6-6-6-6-6--1-1-1-1-1-1-1-1--4-4-4-4-4-4-4-4-|
E -2-2-2-2-2-2-2-2--4-4-4-4-4-4-4-4-----------------------------------|

e --------------------------------------------------------------------|
B --------------------------------------------------------------------|
G ------------------6-6-6-6-6-6-x-x-----------------------6--------6--|
D -4-4-4-4-4-4-4-4--6-6-6-6-6-6-x-x--6-6-6-6-6-6-6-6--x---6---x----6--|
A -4-4-4-4-4-4-4-4--4-4-4-4-4-4-x-x--6-6-6-6-6-6-6-6--x---4---x----4--|
E -2-2-2-2-2-2-2-2-------------------4-4-4-4-4-4-4-4--x-------x-------|


[Verse]2x
e ---------------------------------------------------------|
B ---------------------------------------------------------|
G ----------6~-------------------6~------------------------|
D --4~--6~--6~--6~-------4~--6~--6~------------------------|
A --4~--6~--4~--6~-------4~--6~--4~------------------------|
E --2~--4~------4~-------2~--4~----------------------------|


[Chorus]
e --------------------------------------------------------------------|
B --------------------------------------------------------------------|
G -----------------------------------3-3-3-3-3-3-3-3--6-6-6-6-6-6-6-6-|
D -4-4-4-4-4-4-4-4--6-6-6-6-6-6-6-6--3-3-3-3-3-3-3-3--6-6-6-6-6-6-6-6-|
A -4-4-4-4-4-4-4-4--6-6-6-6-6-6-6-6--1-1-1-1-1-1-1-1--4-4-4-4-4-4-4-4-|
E -2-2-2-2-2-2-2-2--4-4-4-4-4-4-4-4-----------------------------------|

e --------------------------------------------------------------------|
B --------------------------------------------------------------------|
G ------------------6-6-6-6-6-6-x-x-------------------6-6-6-6-6-6-6-6-|
D -4-4-4-4-4-4-4-4--6-6-6-6-6-6-x-x--6-6-6-6-6-6-6-6--6-6-6-6-6-6-6-6-|
A -4-4-4-4-4-4-4-4--4-4-4-4-4-4-x-x--6-6-6-6-6-6-6-6--4-4-4-4-4-4-4-4-|
E -2-2-2-2-2-2-2-2-------------------4-4-4-4-4-4-4-4------------------|

e --------------------------------------------------------------------|
B --------------------------------------------------------------------|
G -----------------------------------3-3-3-3-3-3-3-3--6-6-6-6-6-6-6-6-|
D -4-4-4-4-4-4-4-4--6-6-6-6-6-6-6-6--3-3-3-3-3-3-3-3--6-6-6-6-6-6-6-6-|
A -4-4-4-4-4-4-4-4--6-6-6-6-6-6-6-6--1-1-1-1-1-1-1-1--4-4-4-4-4-4-4-4-|
E -2-2-2-2-2-2-2-2--4-4-4-4-4-4-4-4-----------------------------------|

e --------------------------------------------------------------------|
B --------------------------------------------------------------------|
G ------------------6-6-6-6-6-6-x-x-----------------------6--------6--|
D -4-4-4-4-4-4-4-4--6-6-6-6-6-6-x-x--6-6-6-6-6-6-6-6--x---6---x----6--|
A -4-4-4-4-4-4-4-4--4-4-4-4-4-4-x-x--6-6-6-6-6-6-6-6--x---4---x----4--|
E -2-2-2-2-2-2-2-2-------------------4-4-4-4-4-4-4-4--x-------x-------|


[Bridge]
(Pick each note)
e --2~---4~---1~---4~--------------------------------------|
B --2~---4~---1~---4~--------------------------------------|
G --3~---5~---3~---6~--------------------------------------|
D --4~---6~---3~---6~--------------------------------------|
A --4~---6~---1~---4~--------------------------------------|
E --2~---4~------------------------------------------------|


(Strum each note)
e ---------------------------------------------------------|
B ---------------------------------------------------------|
G ------------3~----6--6-6-6-6-6-6-6-6-6-6-6-6-6-6--xx--xx-|
D --4~---6~---3~----6--6-6-6-6-6-6-6-6-6-6-6-6-6-6--xx--xx-|
A --4~---6~---1~----4--4-4-4-4-4-4-4-4-4-4-4-4-4-4--xx--xx-|
E --2~---4~-----------------------------------------xx--xx-|
                       . . . . . . . . . . . . . .


[Last Chorus]2x
(Do it with this rhythm for the last chorus)
e --------------------------------------------------------------------|
B --------------------------------------------------------------------|
G -----------------------------------3-3-3-3-3-3-3-3--6-6-6-6-6-6-6-6-|
D -4-4-4-4-4-4-4-4--6-6-6-6-6-6-6-6--3-3-3-3-3-3-3-3--6-6-6-6-6-6-6-6-|
A -4-4-4-4-4-4-4-4--6-6-6-6-6-6-6-6--1-1-1-1-1-1-1-1--4-4-4-4-4-4-4-4-|
E -2-2-2-2-2-2-2-2--4-4-4-4-4-4-4-4-----------------------------------|

e --------------------------------------------------------------------|
B --------------------------------------------------------------------|
G ------------------6-6-6-6-6-6-x-x-----------------------6--------6--|
D -4-4-4-4-4-4-4-4--6-6-6-6-6-6-x-x--6-6-6-6-6-6-6-6--x---6---x----6--|
A -4-4-4-4-4-4-4-4--4-4-4-4-4-4-x-x--6-6-6-6-6-6-6-6--x---4---x----4--|
E -2-2-2-2-2-2-2-2-------------------4-4-4-4-4-4-4-4--x-------x-------|

e --------------------------------------------------------------------|
B --------------------------------------------------------------------|
G -----------------------------------3-3-3-3-3-3-3-3--6-6-6-6-6-6-6-6-|
D -4-4-4-4-4-4-4-4--6-6-6-6-6-6-6-6--3-3-3-3-3-3-3-3--6-6-6-6-6-6-6-6-|
A -4-4-4-4-4-4-4-4--6-6-6-6-6-6-6-6--1-1-1-1-1-1-1-1--4-4-4-4-4-4-4-4-|
E -2-2-2-2-2-2-2-2--4-4-4-4-4-4-4-4-----------------------------------|

e --------------------------------------------------------------------|
B --------------------------------------------------------------------|
G ------------------6-6-6-6-6-6-x-x-------------------6-6-6-6-6-6-6-6-|
D -4-4-4-4-4-4-4-4--6-6-6-6-6-6-x-x--6-6-6-6-6-6-6-6--6-6-6-6-6-6-6-6-|
A -4-4-4-4-4-4-4-4--4-4-4-4-4-4-x-x--6-6-6-6-6-6-6-6--4-4-4-4-4-4-4-4-|
E -2-2-2-2-2-2-2-2-------------------4-4-4-4-4-4-4-4------------------|

e --------------------------------------------------------------------|
B --------------------------------------------------------------------|
G -----------------------------------3-3-3-3-3-3-3-3--6-6-6-6-6-6-6-6-|
D -4-4-4-4-4-4-4-4--6-6-6-6-6-6-6-6--3-3-3-3-3-3-3-3--6-6-6-6-6-6-6-6-|
A -4-4-4-4-4-4-4-4--6-6-6-6-6-6-6-6--1-1-1-1-1-1-1-1--4-4-4-4-4-4-4-4-|
E -2-2-2-2-2-2-2-2--4-4-4-4-4-4-4-4-----------------------------------|

e --------------------------------------------------------------------|
B --------------------------------------------------------------------|
G ------------------6-6-6-6-6-6-x-x-------------------6-6-6-6-6-6-6-6-|
D -4-4-4-4-4-4-4-4--6-6-6-6-6-6-x-x--6-6-6-6-6-6-6-6--6-6-6-6-6-6-6-6-|
A -4-4-4-4-4-4-4-4--4-4-4-4-4-4-x-x--6-6-6-6-6-6-6-6--4-4-4-4-4-4-4-4-|
E -2-2-2-2-2-2-2-2-------------------4-4-4-4-4-4-4-4------------------|

e --------------------------------------------------------------------|
B --------------------------------------------------------------------|
G -----------------------------------3-3-3-3-3-3-3-3--6-6-6-6-6-6-6-6-|
D -4-4-4-4-4-4-4-4--6-6-6-6-6-6-6-6--3-3-3-3-3-3-3-3--6-6-6-6-6-6-6-6-|
A -4-4-4-4-4-4-4-4--6-6-6-6-6-6-6-6--1-1-1-1-1-1-1-1--4-4-4-4-4-4-4-4-|
E -2-2-2-2-2-2-2-2--4-4-4-4-4-4-4-4-----------------------------------|

e --------------------------------------------------------------------|
B --------------------------------------------------------------------|
G ------------------6-6-6-6-6-6-x-x-------------------6-6-6-6-6-6-6-6-|
D -4-4-4-4-4-4-4-4--6-6-6-6-6-6-x-x--6-6-6-6-6-6-6-6--6-6-6-6-6-6-6-6-|
A -4-4-4-4-4-4-4-4--4-4-4-4-4-4-x-x--6-6-6-6-6-6-6-6--4-4-4-4-4-4-4-4-|
E -2-2-2-2-2-2-2-2-------------------4-4-4-4-4-4-4-4------------------|

e --------------------------------------------------------------------|
B --------------------------------------------------------------------|
G ------------------6-6-6-6-6-6-x-x-----------------------6--------6--|
D -4-4-4-4-4-4-4-4--6-6-6-6-6-6-x-x--6-6-6-6-6-6-6-6--x---6---x----6--|
A -4-4-4-4-4-4-4-4--4-4-4-4-4-4-x-x--6-6-6-6-6-6-6-6--x---4---x----4--|
E -2-2-2-2-2-2-2-2-------------------4-4-4-4-4-4-4-4--x-------x-------|

e --------------------------------------------------------------------|
B --------------------------------------------------------------------|
G ------------------6-6-6-6-6-6-x-x----------6~-----------------------|
D -4-4-4-4-4-4-4-4--6-6-6-6-6-6-x-x----6~----6~-----------------------|
A -4-4-4-4-4-4-4-4--4-4-4-4-4-4-x-x----6~----4~-----------------------|
E -2-2-2-2-2-2-2-2---------------------4~-----------------------------|

[Violin Outro]
e --------------------------------------------------------------------|
B ---------------/7---------------/9----------------------------------|
G --6p5-6--6p5-6-----6p5-6--6p5-6-----6p5-5--6p5-6--8-6p5-5h6-6~------|
D --------------------------------------------------------------------|
A --------------------------------------------------------------------|
E --------------------------------------------------------------------|

____________________________________________________________________________
Tap to rate this tab
# A B C D E F G H I J K L M N O P Q R S T U V W X Y Z