Song name
# A B C D E F G H I J K L M N O P Q R S T U V W X Y Z

Go Radio - I Miss You tab

Artist: Go Radio
Song: I Miss You
Album: Welcome To Life
Tabbed By: Kelly (kellylien908@hotmail.com

[Tuning: Standard - E,A,D,G,B,e]

Intro:
e|--------------7h8-7---|-------------|-----------7h8-7--|------------------|
B|---1𥹑-1/5--------8-|-5-----5-----|-1-1-1-1/5-------8|-8/10-10/12---13--|
G|----------------------|--7-7----7-5-|------------------|------------------|
D|----------------------|-------------|------------------|------------------|
A|----------------------|-------------|------------------|------------------|
E|----------------------|-------------|------------------|------------------|

Verse:

Rhythm Guitar
Cadd9, F 8x
Wait this isn抰 me that you抮e talking to
This is a front that I put on, the verse
In every song, in every word
And say whatever you can
The story抯 a lie, they fed us an ending that left us alright
And this is the world, and this is the page

Lead (play around with this)
e|-------1-0-----|-------3--0----|
B|-1-3-1-----3-1-|𥹓-1-----3-1-|
G|---------------|---------------|            8x
D|---------------|---------------|
A|---------------|---------------|
E|---------------|---------------|

Pre-Chorus:
Rhythm
From a book I wouldn抰 read for goodness sake
e|-------------------------------|
B|-------------------------------|
G|-------------------------------|
D|-7---5-------------------------|
A|-7---5(let ring)---------------|
E|-5---3-------------------------|

Lead 
e|------------------------------|
B|---5--6--8(let ring)--------|
G|------------------------------|            
D|------------------------------|
A|------------------------------|
E|------------------------------|

Chorus:
Rhythm
C                       Em                     F
And right now where you are I guess you抮e over it
Am
But I can抰 see
Em
How you without me
F                       Am   G
Could possibly make any sense
C                      Em                       F
And right now all you need is just some time to mend
Am                              
Oh well take all you need
     Em             F              Am   G
But my sanity is forever riding on this
F              G(let ring)
Spell it I M-I-S-S
I miss you

Lead 2x(figure out the timing)
e|-----------|----------------------------2h3-1-0-----------5-------3------|
B|-5h6--5--3-|----------5h6-5-3--3-1------------3-3-1---5(bend)-3(bend)|
G|-----------|-5--5--5------------------2------------------2----------------|
D|-----------|--5--5--------------------------------------------------------|
A|-----------|--------------------------------------------------------------|
E|-----------|--------------------------------------------------------------|

e|----------------------------------------|
B|---5--6--8---8/10---8(let ring)-------|
G|----------------------------------------|            
D|----------------------------------------|
A|----------------------------------------|
E|----------------------------------------|

Repeat: Intro, Verse, Pre-Chorus and Chorus

Bridge:
Rhythm
Cadd9, F 5x

Lead
e|-------------------------------|
B|---55555666666-----------------|
G|---55555555555-2x-------------|
D|-------------------------------|
A|-------------------------------|
E|-------------------------------|

e|-------------------------------|--------------------------------------|
B|-------------------------------|--------------------------------------|
G|-------0(let ring)-1/2-0-------|--------0(let ring)-1/2-0---0---------|
D|---02-------------------2-0---|----0-2-------------------2---3-------|
A|-3---------------------------3-|--3-----------------------------------|
E|-------------------------------|--------------------------------------|

             Em   F        G
And she抯 calling out the words, so we sing some more

Chorus  2x, end on G
| /  slide up
| \  slide down
| h  hammer-on
| p  pull-off
| ~  vibrato
| +  harmonic
| x  Mute note
============================================================================
Tap to rate this tab
# A B C D E F G H I J K L M N O P Q R S T U V W X Y Z