Song name
# A B C D E F G H I J K L M N O P Q R S T U V W X Y Z

Go Radio - House Of Hallways tab

Artist - Go Radio
Song   - House Of Hallways
Album  - Lucky Street



Capo: 3rd Fret (Standard Tuning)

[All notes are relative to the Capo]



Intro:

e|--------------------------------------------------------|
B|--------------------------------------------------------|
G|-7---7-----6---6------4----4-----4--2-------------------|
D|-------0---------0-----------0------0-------------------|
A|---5-----5---5-----5----2------2----0-------------------|
E|--------------------------------------------------------|

e|---------------------|----------------------------------|
B|-------------------0-|----------------------------------|
G|-7---7-----6----2--4-|-4-----4-----4--------------------|
D|-------0--------0--0-|---0-----0-----0------------------|
A|---5-----5------0--2-|-----2-----2-----2----------------|
E|---------------------|----------------------------------|
                        ^ This part is    ^
                        ^ played quietly  ^
                        ^ or not at all.  ^

Verse:

e|--------------------------------------------------------|
B|--------------------------------------------------------|
G|-7---7-----6---6------4----4-----4--2-------------------|
D|-------0---------0-----------0------0-------------------|
A|---5-----5---5-----5----2------2----0-------------------|
E|--------------------------------------------------------|
(Play this riff 4 times)


Pre-Chorus:

"Tell me your name..."
e|--------------------------------------------------------|
B|--------------------------------------------------------|
G|---4----4-------6----6--------11----11-----11----11-----|
D|-----0------------0--------------0-----------0----------|
A|-2-----2---2/4------4-----4/9------9----9------9--------|
E|--------------------------------------------------------|
(Play this riff three times)

"Have you hidden doors..."
e|--------------------------------------------------------|
B|-0------------------------------------------------------|
G|-4--4-----4-----4------2--2-----2-----2-----------------|
D|-0----0-----0-----0----0----0-----0-----0---------------|
A|-2------2-----2-----2--0------0-----0-----0-------------|
E|--------------------------------------------------------|

Chorus:

"As these souls rock hard..."
e|--------------------------------------------------------|
B|-0------------------------------------------------------|
G|-4--4-----4-----4------2--2-----2-----2-----------------|
D|-0----0-----0-----0----0----0-----0-----0---------------|
A|-2------2-----2-----2--0------0-----0-----0-------------|
E|--------------------------------------------------------|

The rest of the chorus just repeats parts of the intro and verse in varying orders. You 
can just play that by ear, thats what I do. It should be once you've got this to start from.
Tap to rate this tab
# A B C D E F G H I J K L M N O P Q R S T U V W X Y Z