Song name
# A B C D E F G H I J K L M N O P Q R S T U V W X Y Z

Go Radio - Any Other Heart tab

----------------------------------------------------------------------------
                     "Any Other Heart" by Go Radio
----------------------------------------------------------------------------
Palm mute: *
Slide:  /
Half-Step Down

VERSE

Rhythm (palm mute)
Db|----------------------------------------------------------|
Ab|----------------------------------------------------------|
Fb|----------------------------------------------------------|   x2
Cb|----------------------------------------------------------|
Gb|----------------------------------------------------------|
Db|---4(X16)-----------0(X16)-----------7(X16)-------2(X16)--|


PRE-CHORUS

Rhythm
Db|------------------------------------------------------------|
Ab|------------------------------------------------------------|
Fb|------------------------------------------------------------|
Cb|------------------------------------------------------------|
Gb|---7-7-7-7-7-7-7-7------------------------------------------|
Db------------------------2-2-2-2-2-2-2-2-4-4-4-4-4-4-4-4-0-0-0|

--------------------------------------------|
--------------------------------------------|
--------------------------------------------|
--------------------------------------------|
--------------------------------------------|
-0-0-0-0-0-2-2-2-2-2-2-2-2-7-7-7-7-6-6-6-6--|





Db|----------------------------------------------------------------------------------|
Ab|----------------------------------------------------------------------------------|
Fb|----------------------------------------------------------------------------------|
Cb|----------------------------------------------------------------------------------|
Gb|----------------------------------------------------------------------------------|
Db|---4-4-4-4-2-2-2-2-0-0-0-0-0-0-0-0-2-2-2-2-2-2-2-2-7-7-7-7-2-2-2-2-0-0-0-0-0-0-0--|

Lead
Db|---11--11--9--9--7-7-7-7-11--11--9--9--------|
Ab|-----12--12-11-11-9-9-9-9--12--12-11-11------|
Fb|---------------------------------------------|
Cb|---------------------------------------------|
Gb|---------------------------------------------|
Db|---------------------------------------------|

Db|---11--9--7-6-11--11--9--9--11--11--9--9-----|
Ab|-----12-11-9-7--12--12-11-11--12--12-11-11---|
Fb|---------------------------------------------|
Cb|---------------------------------------------|
Gb|---------------------------------------------|
Db|---------------------------------------------|

Db|---7-7-7-7-7-7--9----|
Ab|----9-9-9-9-9-9-11---|
Fb|---------------------|
Cb|---------------------|
Gb|---------------------|
Db|---------------------|

CHORUS

Rhythm
Db|----------------------------------------------------|
Ab|----------------------------------------------------|
Fb|----------------------------------------------------|
Cb|---2--------4------------------6-----4--------------|
Gb|---2--------4------------------6-----4--------------|
Db|---0--------2------------------4-----2--------------|  listen to the song for strumming pattern

Db|---------------------------------------------------|
Ab|---------------------------------------------------|
Fb|---------------------------------------------------|
Cb|---2--------6----4----0--------4-------------------|
Gb|---2--------6----4----2--------4-------------------|
Db|---0--------4----2----2--------2-------------------|

Lead
Db|-----------------------------------|
Ab|-------7------7--4-4-4-4-2-2-2-2---|
Fb|---2/4----2/4----------------------|
Cb|-----------------------------------|
Gb|-----------------------------------|
Db|-----------------------------------|

Db|-----------------7---7---6---6-----|
Ab|-------7------7----9---9---7---7---|
Fb|---2/4----2/4----------------------|   Repeat Both
Cb|-----------------------------------|
Gb|-----------------------------------|
Db|-----------------------------------|

FIRST SOLO

Rhythm
Db|-----------------------------------------|
Ab|-----------------------------------------|
Fb|-----------------------------------------|
Cb|---6----4----2--------6----4----2--------|
Gb|---6----4----2--------6----4----2--------|
Db|---4----2----0--------4----2----0--------|

Lead
Db|---------------------------------------------|
Ab|---9/12-11----------------9/12-11------------|
Fb|-----------13-11------------------13-11------|   x2
Cb|-----------------13-11-9----------------13---|
Gb|---------------------------------------------|
Db|---------------------------------------------|

Repeat Everything

Bridge

Rhythm
Db|--------------------------------|
Ab|--------------------------------|
Fb|--------------------------------|
Cb|---2--------4--------6----------|
Gb|---2--------4--------6----------|
Db|---0--------2--------4----------| listen to song for strumming pattern
Tap to rate this tab
# A B C D E F G H I J K L M N O P Q R S T U V W X Y Z