Goanna - Solid Rock tab

-----------------------------------------------------------------------------
			    Solid Rock - Goanna
-----------------------------------------------------------------------------
Tabbed by: Torc	

Comments: This had been ear-transcribed with a little help from other tabs 
already posted on UG, basically my one though.

Tuning: Standard

	*= dont strum the notes that have been slid up to, 
	   they should ring faintly for a very short period.

e|-----------------------------------------------------------------------|
B|-------1p0---0---0---1-------1/3*--------------------------------------|
G|----2p0---0---0---2-------2/4*--4--4--4/5--5--5----5\4--1--------------| X2
D|-------2p0---0---0---2-------2/4*--4--4--4/5--5--5----5\4--2-----------| 
A|-----------------------------------2--2--2/3--3--3----3\2--2-----------|
E|-----------------------------------------------------------------------|

************************************

| /   slide up
| \   slide down
| h   hammer-on
| p   pull-off
| ~   vibrato
| +   harmonic
| x   Mute note
| b   Bend
| pb  Pre-bend
| br  Bend release
| pbr Pre-bend release
| brb Bend release bend

************************************
Tap to rate this tab
 
# A B C D E F G H I J K L M N O P Q R S T U V W X Y Z