Song name
# A B C D E F G H I J K L M N O P Q R S T U V W X Y Z

Goat Horn - Fortress Doomed tab

Song: Fortress Doomed
Artist: Goat Horn
Album: Storming the Gates

www.goathorn.com

Tuning: Standard EADGBe




e|---------------------------------------------------------------|
B|---------------------------------------------------------------|
G|---------------------------------------------------------------|
D|10-------------6-----------------------------------------------|
A|8-888-888-888--4-444-444-444-8-------------6-----10------------|
E|-----------------------------6-666-666-666-4-444-8-888---------|
p.m ... ... ...    ... ... ...   ... ... ...   ...   ...

e|---------------------------------------------------------------|
B|---------------------------------------------------------------|
G|---------------------------------------------------------------|
D|10-------------6---------------------------6-----9-----9-------|
A|8-888-888-888--4-444-444-444-8-------------4-444-7-777-7-------|
E|-----------------------------6-666-666-666---------------------|
p.m ... ... ...    ... ... ...   ... ... ...   ...   ...
Tap to rate this tab
# A B C D E F G H I J K L M N O P Q R S T U V W X Y Z