Song name
# A B C D E F G H I J K L M N O P Q R S T U V W X Y Z

Goatmoon - Kunnia Armageddon tab

Kunnia, Armageddon!

INTRO - VERSE

1-----------------------------------------|
2-----------------------------------------|
3-----------------------------------------|
4-2-2-2-2-2-2-2-5-5-5-5-5-5-5-5-3-3-3-3-3-|
5-2-2-2-2-2-2-2-5-5-5-5-5-5-5-5-3-3-3-3-3-|
6-0-0-0-0-0-0-0-3-3-3-3-3-3-3-3-1-1-1-1-1-|

1----------|
2----------|
3----------|
4----------|
5----1-----|
61-3---3---|

CHORUS

1----------------------------------------------------|
2----------------------------------------------------|
3----------109--------109--------101010-------9-9-9--|
4--7-7-7-7-8-7-7-7-7--8-7--8-8-8--------7-7-7--------|
5--5-5-5-5-----5-5-5---------------------------------|
6----------------------------------------------------|


that's all "eetulehtolaaa"
Tap to rate this tab
# A B C D E F G H I J K L M N O P Q R S T U V W X Y Z