Song name
# A B C D E F G H I J K L M N O P Q R S T U V W X Y Z

Goatwhore - The All Destroying tab

Band:  GOATWHORE
Album: CARVING OUT THE EYES OF GOD
Song:  THE ALL DESTROYING

Copyright (c)  METAL BLADE 2009
Version 1.0 - (DATE)

Transcribed By: Graham Cray
Email:          darkfuneral70@hotmail.com


.  - palm mute           /  - slide up to
\  - slide down to       ~  - vibrato
h  - hammer on           b  - Bend
p  - pull off            Suffixes for bend
t  - tap                 f  - full bend    h - half bend
ph - pinched harmonic    q  - quarter bend t - tap bend
*  - see comment         ^  - Hold bend    r release bend
x  - Stuccatto           ~  - vibrato bend
,  - slight palm mute    () - ghost note, sustained note
"  - tremolo note        <> - Trill

Tuning C F A. D. G C

|-------------------------------------------------------------------| 
|-------------------------------------------------------------------|  
|-------------------------------------------------------------------|  
|-----7777777777777-----777-----------------------------------------|  
|-666-5555555555555-666-555--777--666--44444------------------------|  
|-444---------------444------555--444--22222------------------------|  
                                                                                 x2
|-------------------------------------------------------------------|
|-------------------------------------------------------------------|
|---------------------------------101010--99--1111------------------|
|-----7777777777777-----777-------8-8-8---77--9-9-------------------|
|-666-5555555555555-666-555--777------------------------------------|
|-444---------------444------555------------------------------------|


|-------------------------------------------------------------------------|
|-------------------------------------------------------------------------|
|-------------------------------------------------------------------------|
|-------------------------------------------------------------------------|
|-5------5------5------5------5----5----4-----4-----6-----6-----6----4----|
|-3-0000-3-0000-3-0000-3-0000-3-00-3-00-3-000-3-000-3-000-3-000-3-00-3----|
    ....   ....   ....   ....   ..   ..   ...   ...   ...   ...   ..            X2
                                                                        
|-----------------------------------------------------------------------|
|-----------------------------------------------------------------------|
|-----------------------------------------------------------------------|
|--------------------------------------------------------8-7------------|
|-5------5------5------5------5----5----4-----4----7-8-7-6-5-8-7-6666---|
|-3-0000-3-0000-3-0000-3-0000-3-00-3-00-3-000-3-00-5-6-5-----6-5-4444---|
    ....   ....   ....   ....   ..   ..   ...   ..

KEEP AN EYE ON THE TIMING WITH THIS RIFF:

|-----------------------------------|
|-----------------------------------|
|-----------------------------------|   X4
|----------------------8-7----------|
|-6-6-6-6-6-6-6--7-8-7-6-5-8-7------|
|-4-4-4-4-4-4-4--5-6-5-----6-5------|

|-------------------------------------------------------------------| 
|-------------------------------------------------------------------|  
|-------------------------------------------------------------------|  
|-----7777777777777-----777-----------------------------------------|  
|-666-5555555555555-666-555--777--666--44444------------------------|  
|-444---------------444------555--444--22222------------------------|  
                                                                                 x2
|-------------------------------------------------------------------|
|-------------------------------------------------------------------|
|---------------------------------101010--99--1111------------------|
|-----7777777777777-----777-------8-8-8---77--9-9-------------------|
|-666-5555555555555-666-555--777------------------------------------|
|-444---------------444------555------------------------------------|


|-----------------------------------|
|-----------------------------------|
|-----------------------------------|   X4
|----------------------8-7----------|
|-6-6-6-6-6-6-6--7-8-7-6-5-8-7------|
|-4-4-4-4-4-4-4--5-6-5-----6-5------|

SLIGHT VARIATION WITH 1ST 2 MUTED NOTES

|-----------------------------------|
|-----------------------------------|
|-----------------------------------|   X4
|----------------------8-7----------|
|-6-6-6-6-6-6-6--7-8-7-6-5-8-7------|
|-4-4-4-4-4-4-4--5-6-5-----6-5------|
  . .

|-------------------------------------------------------------------------|
|-------------------------------------------------------------------------|
|-------------------------------------------------------------------------|
|-------------------------------------------------------------------------|
|-5------5------5------5------5----5----4-----4-----6-----6-----6----4----|
|-3-0000-3-0000-3-0000-3-0000-3-00-3-00-3-000-3-000-3-000-3-000-3-00-3----|
    ....   ....   ....   ....   ..   ..   ...   ...   ...   ...   ..            
                                                                        
|-----------------------------------------------------------------------|
|-----------------------------------------------------------------------|
|-----------------------------------------------------------------------|
|--------------------------------------------------------8-7------------|
|-5------5------5------5------5----5----4-----4----7-8-7-6-5-8-7--6666--|
|-3-0000-3-0000-3-0000-3-0000-3-00-3-00-3-000-3-00-5-6-5-----6-5--4444--|

|-------------------------------------------------------------------------|
|-------------------------------------------------------------------------|
|-------------------------------------------------------------------------|
|-------------------------------------------------------------------------|
|-5------5------5------5------5----5----4-----4-----6-----6-----6----4----|
|-3-0000-3-0000-3-0000-3-0000-3-00-3-00-3-000-3-000-3-000-3-000-3-00-3----|
    ....   ....   ....   ....   ..   ..   ...   ...   ...   ...   ..            
                                                                        
|-----------------------------------------------------------------------|
|-----------------------------------------------------------------------|
|-----------------------------------------------------------------------|
|--------------------------------------------------------8-7------------|
|-5------5------5------5------5----5----4-----4----7-8-7-6-5-8-7--------|
|-3-0000-3-0000-3-0000-3-0000-3-00-3-00-3-000-3-00-5-6-5-----6-5--------|


AGAIN THE TIMING IS SLIGHTLY DIFFERENT ON THE SECOND TIME ROUND

|-----------------------------------------------------|
|-----------------------------------------------------|
|-----------------------------------------------------|
|----------------------3-----------5-4-5--------------|
|-4444444444444--5--4--1--4444444--3-2-3-5-4-5--------|
|-2222222222222--3--2-----2222222--------3-2-3--------|


|--------------------------------------------------------------------------------------------|
|--------------------------------------------------------------------------------------------|
|--------------------------------------------------------------------------------------------| X2
|-8---------8----8----8---------8------------------------------------------------------------|
|-6-7777777-6-77-6-77-6-7777777-6-7-8-9-8-7--9-8888888--9-8-7-8-7-8--9-8888888--9-8-7-8-7-8--|
|---5555555---55---55---5555555---5-6-7-6-5--7-6666666--7-6-5-6-5-6--7-6666666--7-6-5-6-5-6--|

|-------|
|-------|
|-------|
|-------|
|--7----|
|--5----|

|-----------------------------------------------------|
|-----------------------------------------------------|
|-----------------------------------------------------|
|----------------------3-----------5-4-5--------------|
|-4444444444444--5--4--1--4444444--3-2-3-5-4-5--------|
|-2222222222222--3--2-----2222222--------3-2-3--------|
  .............           .......



END
Tap to rate this tab
# A B C D E F G H I J K L M N O P Q R S T U V W X Y Z