Song name
# A B C D E F G H I J K L M N O P Q R S T U V W X Y Z

Goatwhore - Apocalyptic Havoc tab

Band:  GOATWHORE
Album: CARVING OUT THE EYES OF GOD
Song:  APOCALYPTIC HAVOC

Copyright (c)  METAL BLADE 2009
Version 1.0 - (DATE)

Transcribed By: Graham Cray
Email:          darkfuneral70@hotmail.com


.  - palm mute           /  - slide up to
\  - slide down to       ~  - vibrato
h  - hammer on           b  - Bend
p  - pull off            Suffixes for bend
t  - tap                 f  - full bend    h - half bend
ph - pinched harmonic    q  - quarter bend t - tap bend
*  - see comment         ^  - Hold bend    r release bend
x  - Stuccatto           ~  - vibrato bend
,  - slight palm mute    () - ghost note, sustained note
"  - tremolo note        <> - Trill

Tuning C F A. D. G C

|-------------------------------------------------------------------|
|-------------------------------------------------------------------|
|-------------------------------------------------------------------|
|--------7-9------7-9------7-9--------------------------------------|
|--------5-7------5-7------5-7--0h2p0-------------------------------|
|-000000-----0000-----0000------------3p0---------------------------|
  ......     ....     ....

|-------------------------------------------------------------------|
|-------------------------------------------------------------------|
|-------------------------------------------------------------------|
|-----7-9-----7-9-----7-9-------------------------------------------|
|-----5-7-----5-7-----5-7-------------------------------------------|
|-0-0-----0-0-----0-0-----0-0-0-0-----------------------------------|

|-------------------------------------------------------------------|
|-------------------------------------------------------------------|
|-------------------------------------------------------------------|
|-------------------------------------------------------------------|
|-(5)--7-5-8------------------2p0-----(5)--7-5-8--------------------|
|-(3)--5-3-6--000000000000000-----3p0-(3)--5-3-6--------------------|
              ...............


UNFORTUNATELY NO SOLO TABBED YET.....

REPEAT RIFFS 1-3, THEN....

|-----------------------------------------------|
|-----------------------------------------------|
|-----------------------------------------------|  X2
|-6--------6------------------------------------|
|-4--------6---------7-5-7-6--------------------|
|---444444---444444--5-3-5-4--------------------|
    ......   ......

|-----------------------------------------------|
|-----------------------------------------------|
|-----------------------------------------------|  X1
|-8--------8------------------------------------|
|-6--------8---------9-7-9-8--------------------|
|---666666---666666--7-5-7-6--------------------|
    ......   ......

|-----------------------------------------------|
|-----------------------------------------------|
|-----------------------------------------------|  X2
|-6--------6------------------------------------|
|-4--------6---------7-5-7-6--------------------|
|---444444---444444--5-3-5-4--------------------|
    ......   ......

|-----------------------------------------------|
|-----------------------------------------------|
|-----------------------------------------------|  X1
|-8--------8------------------------------------|
|-6--------8---------9-7-9-8--------------------|
|---666666---666666--7-5-7-6--------------------|
    ......   ......

|-----------------------------------------------|
|-----------------------------------------------|
|-----------------------------------------------|  X4
|-6--------6------------------------------------|
|-4--------6---------7-5-7-6--------------------|
|---444444---444444--5-3-5-4--------------------|
    ......   ......

|-----------------------------------------------|
|-----------------------------------------------|
|-----------------------------------------------|
|-7/(9)-----7/(9)-----7/(9)-----7/(9)-----------|
|-5/(7)-----5/(7)-----5/(7)-----5/(7)-----------|
|-----------------------------------------------|

|-------------------------------------------------------------------|
|-------------------------------------------------------------------|
|-------------------------------------------------------------------|  X4
|--------------------5-3--7-6--------------------5-4-3--------------|
|-5--------5---------5-3--5-4-5--------5---------3-2-1--5-4-3-------|
|-3-333333-3-333333-----------3-333333-3-333333---------3-2-1-------|
    ......   ......             ......   ......

|-------------------------------------------------------------------|
|-------------------------------------------------------------------|
|-------------------------------------------------------------------|  X2
|-2-------2-------2--------8-7/8--2-------2--------8-7/8------------|
|-0-00000-0-00000-0-00000--6-5/6--0-00000-0-00000--6-5/6--7/8-5-----|
|---------------------------------------------------------5/6-3-----|
    .....   .....   .....           .....   .....

|-------------------------------------------------------------------|
|-------------------------------------------------------------------|
|-------------------------------------------------------------------|  X4
|--------------------5-3--7-6--------------------5-4-3--------------|
|-5--------5---------5-3--5-4-5--------5---------3-2-1--5-4-3-------|
|-3-333333-3-333333-----------3-333333-3-333333---------3-2-1-------|
    ......   ......             ......   ......

|-------------------------------------------------------------------|
|-------------------------------------------------------------------|
|-------------------------------------------------------------------|  X4
|-2-------2-------2--------8-7/8--2-------2--------8-7/8------------|
|-0-00000-0-00000-0-00000--6-5/6--0-00000-0-00000--6-5/6--7/8-5-----|
|---------------------------------------------------------5/6-3-----|
    .....   .....   .....           .....   .....

|-------------------------------------------------------------------|
|-------------------------------------------------------------------|
|-------------------------------------------------------------------|
|-5-4-3----------5-4-3----------------------------------------------|
|-3-2-1--5-4-3---3-2-1--5-4-3---(6)--55555--------------------------|
|--------3-2-1----------3-2-1---(4)--33333--------------------------|
                        . . .        ....


END
Tap to rate this tab
# A B C D E F G H I J K L M N O P Q R S T U V W X Y Z