Song name
# A B C D E F G H I J K L M N O P Q R S T U V W X Y Z

Goatwhore - Alchemy Of The Black Sun Cult tab

----------------------------------------------------------------------------
		     Alchemy of the Black Sun Cult - Goatwhore
----------------------------------------------------------------------------

Tabbed by: Tyler Greig

Email: gtheleadguitarist@hotmail.com


| /  slide up
| \  slide down
| h  hammer-on
| p  pull-off
| v  vibrato
| +  harmonic
| x  Mute note
| ~  let ring


Tuning: Drop C (C G C F A D)

Repeat all riffs as necessary. Kickin' song, shouldn't be too hard. It all sounds right 
pretty damn close to me.
As always, if you need help with anything you see in any of my tabs, add me on MSN or 
me an email.

Intro/Main riff
|------------------------------------------------------------------|
|------------------------------------------------------------------|
|------------------------------------------------------------------|
|------------------------------------------------------------------|
|-5-5-3-5-5-5-3-5-5-5-3-5-6-6-3-3--5-5-3-5-5-5-3-5-5-5-3-5-6-6-3~--|
|-5-5-3-5-5-5-3-5-5-5-3-5-6-6-3-3--5-5-3-5-5-5-3-5-5-5-3-5-6-6-3~--|

Riff B
|-------------------------|
|-------------------------|
|-------------------------|
|------6------------------|
|------4------9-8-----8-7-|
|-5555---5555-9-8-8-8-8-7-|
PM....   ....     . .

Riff C
|---------------------------|
|---------------------------|
|---------------------------|
|---------------------------|
|-8-7-7-7-7-7-7-7-7-7-7-8-4-|
|-8-7-7-7-7-7-7-7-7-7-7-8-4-|

Riff D
|-----------------------------------|
|-----------------------------------|
|-----------------------------------|
|-----------------------------------|
|-333333333333-99-5555-55-6-66-8-88-|
|-333333333333-99-5555-55-6-66-8-88-|
PM                     ..   ..   ..

Riff E (Its just the root notes of riff 2 tremolo picked)
|-----------------------------------|
|-----------------------------------|
|-----------------------------------|
|-----------------------------------|
|-----4444--------------------------|
|-5555----5555-99-88888888-7777777--|

"Bridge" riff
|-------------------------------------------------|
|-------------------------------------------------|
|-------------------7-6-6-9-----------------------|
|-------------------7-6-6-9-----------5-----6-3-5-|
|-5-----------------5-4-4-7-----------5-----6-3-5-|
|-0-000-0-000-0-000---------000-0-000-5-000-6-3-5-|
PM  ... . ... . ...         ... . ...   ...

"Bridge 2" this is the riff im not too sure of. the picking pattern does change, so 
to the song for that.
The last time you play this riff, only play to the second 555.
|-------------------------|
|-------------------------|
|-------------------------|
|-5-/10-6-5-3--4--5--5--7-|
|-5-/10-6-5-3--2--5--3--7-|
|-5-/10-6-5-3-----5-----7-|


Now its all just a matter of putting everything together in the right spot:

Intro x1
Riff B x4
Intro x2
Riff C x4
Intro x2
Riff B x1
Intro x0.5
Riff B x1
Intro x2
Riff D x4
Riff B x2
Riff E x2
Bridge x4
Bridge 2 x8 (and a half)
Bridge x4
Riff C x4
Intro x2
Riff B x1

============================================================================
Tap to rate this tab
# A B C D E F G H I J K L M N O P Q R S T U V W X Y Z