Guitaretab - guitar tabs
Song name
# A B C D E F G H I J K L M N O P Q R S T U V W X Y Z

Gob - Still Feel Nothing tab

Intro/Verse
guitar 1
  Bbm          F
e|----------------------------------------------------------------------|
B|---1---1-2-1----------------------------------------------------------|
G|---3---3-3-3----1---1-2-1---------------------------------------------|
D|----------------3---3-3-3---------------------------------------------|
A|-11--1----------------------------------------------------------------|
E|--------------11--1--------1------------------------------------------|
[ Tab from: http://www.guitaretab.com/g/gob/105837.html ]
Guitar 2
e|-----7------------6-6-------------------------------------------------|
B|-5-8---8-7-5--4-7---4-------------------------------------------------|
G|----------------------------------------------------------------------|
D|----------------------------------------------------------------------|
A|----------------------------------------------------------------------|
E|----------------------------------------------------------------------|


I have tabbed out some of the solo and I'm working out the rest.


Solo

e|-----------------------------------------------------------------------|
B|-------------------------------6-6-9-7-6-------------------------------|
G|-2/10~--2/10~--2/10-8-6-5----6-----------------------------------------|
D|--------------------------8~-------------------------------------------|
A|-----------------------------------------------------------------------|
E|-----------------------------------------------------------------------|


Related for Still Feel Nothing tab