Song name
# A B C D E F G H I J K L M N O P Q R S T U V W X Y Z

Gob - About My Summer tab

Intro Part 1

e|-------------------------------------------------------------------|
B|------h6h7p6h7p6h7-------------------------------------------------|
G|-------------------------------------------------------------------|
D|-------------------------------------------------------------------|
A|--0----------------------------------------------------------------|
D|-------------------------------------------------------------------|


Intro Part 2/Verse/Chorus


e|-------------------------------------------------------------------|
B|-------------------------------------------------------------------|
G|-----------------8---------------------------------------4---------|
D|--88-888--888-8--8--4--66-666-666-666-666-666--666-666-6-4--2-44---|
A|--88-888--888-8--6--4--66-666-666-666-666-666--666-666-6-2--2-44---|
D|--88-888--888-8-----4--66-666-666-666-666-666--666-666-6----2-44---|

e|-------------------------------------------------------------------|
B|-------------------------------------------------------------------|
G|-------------------------------------------------------------------|
D|--444-444-444------------------------------------------------------|
A|--444-444-444------------------------------------------------------|
D|--444-444-444------------------------------------------------------|


Interlude

e|-------------------------------------------------------------------|
B|-------------------------------------------------------------------|
G|-------------------------------------------------------------------|
D|--3-2-0-3-2-0------------------------------------------------------|
A|--3-2-0-3-2-0------------------------------------------------------|
D|--3-2-0-3-2-0------------------------------------------------------|






Bridge 


e|-------------------------------------------------------------------|
B|-------------------------------------------------------------------|
G|-------------------------5-5----------------------5-5--------------|
D|-3-6-3-6-3-6-3-6-3-6-3-6------3-5-3-5-3-5-3-5-3-5------------------|
A|-------------------------------------------------------------------|
D|-------------------------------------------------------------------|

e|-------------------------------------------------------------------|
B|-------------------------------------------------------------------|
G|---------------------------5-5-------------------------5-5---------|
D|--8-5-8-5-8-5-8-5-8-5-8-5------9-6-9-6-9-6-9-6-9-6-9-6-------------|
A|-------------------------------------------------------------------|
D|-------------------------------------------------------------------|


e|-------------------------------------------------------------------|
B|-------------------------------------------------------------------|
G|-------------------------5-5----------------------5-5--------------|
D|-3-6-3-6-3-6-3-6-3-6-3-6------3-5-3-5-3-5-3-5-3-5------------------|
A|-------------------------------------------------------------------|
D|-------------------------------------------------------------------|

e|-------------------------------------------------------------------|
B|-------------------------------------------------------------------|
G|-------------------------------------------------------------------|
D|-1-3-1-3-1-3-1-3-1-3-1-3-0-1-0-1-0-1-0-1---------------------------|
A|------------------------------------------3-5-3-5-3-5-3-5-3-5------|
D|-------------------------------------------------------------------|
Tap to rate this tab
 
# A B C D E F G H I J K L M N O P Q R S T U V W X Y Z