Guitaretab - guitar tabs
Song name
# A B C D E F G H I J K L M N O P Q R S T U V W X Y Z

Gob - Were All Dying tab

I haven't figured out the solo yet.


INTRO                     guitar1
e|----------------------------------------------------------------|
B|----------------------------------------------------------------|
G|----------------------------------------------------------------|
D|--7--7--7--7---7--7---------------------------------------------|
A|---5--5--5---5---5--5-play that a lot of times------------------|
D|----------------------------------------------------------------|
 |                       guitar2                                  |
e|----------------------------------------------------------------|
B|----------------------------------------------------------------|
G|----------------------------------------------------------------|
D|----------------------------------------------------------------|
A|-h5-h6-h8-h7-h8-------------------------------------------------|
D|-h5-h6-h8-h7-h8-guitar2 plays stuff like that for whole intro---|


VERSE 1 (BASS)
e|----------------------------------------------------------------|
B|----------------------------------------------------------------|
G|----------------------------------------------------------------|
D|----------------------------------------------------------------|
A|-------------------Twelves Fifteens-----------------------------|
D|-3333333-11111111/1212121215151515--12121212-15-15-15-15-15-15\-|


CHORUS

e|----------------------------------------------------------------|
B|----------------------------------------------------------------|
G|------------------------77--------------------------------------|
D|-55555555-88--33333333--77--------------------------------------|
A|-55555555-88--33333333--55--------------------------------------|
D|-55555555-88--33333333------------------------------------------|



VERSE 2 

e|----------------------------------------------------------------|
B|----------------------------------------------------------------|
G|--------------------twelves---fifteens-twelves---fifteens-------|
D|-33333333-11111111-1212121212-15151515-12121212--15151515-15\---|
A|-33333333-11111111-1212121212-15151515-12121212--15151515-15\---|
D|-33333333-11111111-1212121212-15151515-12121212--15151515-15\---|
PM xxxxxxxx xxxxxxxx xxxxxxxxxx xxxxxxxx xxxxxxxx  xxxxxxxx


CHORUS
[ Tab from: http://www.guitaretab.com/g/gob/105875.html ]
e|----------------------------------------------------------------|
B|----------------------------------------------------------------|
G|------------------------77--------------------------------------|
D|-55555555-88--33333333--77--------------------------------------|
A|-55555555-88--33333333--55--------------------------------------|
D|-55555555-88--33333333------------------------------------------|

Bridge 

Guitar 1
e|-----------------------------------------------------------------|
B|-----------------------------------------------------------------|
G|-----------------------------------------------------------------|
D|-----------------------------------------------------------------|
A|-7-5-7-5-7-5-7-8h10p8-5-3-5--------------------------------------|
D|-7-5-7-5-7-5-7-8h10p8-5-3-5--------------------------------------|
(First time palm muted)

Guitar 2's solo (with wah)
e|-----------------------------------------------------------------|
B|-----------------------------------------------------------------|
G|-----------------------------------------------------------------|
D|-7~-5~-5~-8~-7~--------------------------------------------------|
A|-----------------------------------------------------------------|
D|-----------------------------------------------------------------|


e|----------------------------------------------------------------|
B|----------------------------------------------------------------|
G|----------------------------------------------------------------|
D|----------------------------------------------------------------|
A|-5-5-8-3-3-7-1-1-5-3-3-7-5-5-8-8-7-5-3-3-3-5-3-5-7--------------|
D|-5-5-8-3-3-7-1-1-5-3-3-7-5-5-8-8-7-5-3-3-3-5-3-5-7--------------|

e|-----------------------------------------------------------------|
B|-----------------------------------------------------------------|
G|-----------------------------------------------------------------|
D|-7---7---7---7---------------------------------------------------|
A|---5---5---5--------------12\------------------------------------|
D|--------------------------12\------------------------------------|

CHORUS

e|----------------------------------------------------------------|
B|----------------------------------------------------------------|
G|------------------------77--------------------------------------|
D|-55555555-88--33333333--77--------------------------------------|
A|-55555555-88--33333333--55--------------------------------------|
D|-55555555-88--33333333------------------------------------------|


x-palm mute
/-slide up
\-slide down
h-hammer on
Related for Were All Dying tab