Guitaretab - guitar tabs
Song name
# A B C D E F G H I J K L M N O P Q R S T U V W X Y Z

Gob - Sick With You tab

Sick With You 
Gob
F.U. EP.
Tabbed for your pleasure By Fuperman


Guitars are both dropped one half-step.

Tabbed for two guitars.


Intro

Guitar 1
eb|---------------------------|
Bb|---------------------------|
Gb|---------------------------|
Db|--5--5--5--5-5--5--5-5-5-5-|    x8
Ab|--5--5--5--5-5--5--5-5-5-5-|
Eb|--3--3--3--3-3--3--3-3-3-3-|

Guitar 2
eb|---------------------------------------------------|
Bb|---------------------------------------------------|
Gb|--4-0-5-0-7-0-5--4-0-5-0-7-0-5-0--4-0-5-0-7-0-5-0--| x8
Db|---------------------------------------------------|
Ab|---------------------------------------------------|
Eb|---------------------------------------------------|

Verse

Guitar 1
eb|-------------------------------------------------------
Bb|-------------------------------------------------------
Gb|-------------------------------------------------------
Db|--5--5--5--5-5--5--5-5-5-5--3--3--3--3-3--3--3-3-3-3---
Ab|--5--5--5--5-5--5--5-5-5-5--3--3--3--3-3--3--3-3-3-3---
Eb|--3--3--3--3-3--3--3-3-3-3--1--1--1--1-1--1--1-1-1-1---


eb|----------------------------|
Bb|----------------------------|
Gb|-------------5--5--5-5-5-5--|
Db|--2--2--2--2-5--5--5-5-5-5--|   x4
Ab|--2--2--2--2-3--3--3-3-3-3--|
Eb|--0--0--0--0-3--3--3-3-3-3--|

Then in the third time through these chords guitar 2 goes...


Guitar 2
eb|----------------------------------------------------------------|
Bb|----------------------------------------------------------------|
Gb|--12--14--16---12--14--16--12---12-12-12-12-10-10-10-10-5-5-5-5-|
Db|----------------------------------------------------------------|
Ab|--10--12--14---10--12--14--10---10-10-10-10-8--8--8--8--3-3-3-3-|
Eb|----------------------------------------------------------------|

Bridge.

Guitar 1
eb|------------------|
Bb|------------------|
Gb|------------------|
Db|--7--5-7--5-7-5-7-|
Ab|--5--5-5--5-5-5-5-|
Eb|------------------|

Guitar 2
eb|------------------|
Bb|------------------|
Gb|--7-7-7-7-7-7-7-7-|
Db|------------------|
Ab|--5-5-5-5-5-5-5-5-|
Eb|------------------|

Chorus

Both Guitars

eb|--------------------------------------------------|
Bb|--------------------------------------------------|
Gb|--------------------------5--5--5--5--7--7--7--7--|  x2
Db|--5--5--5--5--3--3--3--3--5--5--5--5--7--7--7--7--|
Ab|--5--5--5--5--3--3--3--3--3--3--3--3--5--5--5--5--|
Eb|--3--3--3--3--1--1--1--1--3--3--3--3--5--5--5--5--|

does the intro thing twice then another verse.
guitar 1 remains the same but on the second time guitar 2 goes....
[ Tab from: http://www.guitaretab.com/g/gob/110946.html ]
eb|---------------------------------------------------------------------|
Bb|---------------------------------------------------------------------|
Gb|--12--14--16-12--17-16-12--12-12-12-12-12-12-12-12-12-12-12-12-12-12-|
Db|---------------------------------------------------------------------|
Ab|--10--12--14-10--15-14-10--10-10-10-10-10-10-10-10-10-10-10-10-10-10-|
Eb|---------------------------------------------------------------------|

then, a bridge and a chorus but the chorus is longer.


Bridge to Solo.

Both Guitars
eb|--------------------------------|
Bb|--------------------------------|
Gb|--------------------------------|
Db|--2-----5-5-----2-2-----5----7--|
Ab|--2-----3-5-----0-2-----3----5--|
Eb|--0-------3-------0-----3----5--|


Guitar Solo

Guitar 1
eb|-----------------------------------------------------------------------|
Bb|-----------------------------------------------------------------------|
Gb|-7-7-7-7-7-7-7-7-------------------------------------------------7-7-7-|
Db|-7-7-7-7-7-7-7-7-7-7-7-7-7-7-7-9-10-10-10-10-10-10-10-10-5-5-5-5-7-7-7-|
Ab|-5-5-5-5-5-5-5-5-7-7-7-7-7-7-7-9-10-10-10-10-10-10-10-10-5-5-5-5-5-5-5-|   x2
Eb|-----------------5-5-5-5-5-5-5-7-8--8--8--8--8--8--8--8--3-3-3-3-------|

eb|--------------------------------------------------|
Bb|--------------------------------------------------|
Gb|--7-5-7-5-7-5-7-9-7-9-7-9-7-9-5-4-5-4-5-4-5--9--7-|
Db|--------------------------------------------------| x2
Ab|--------------------------------------------------|
Eb|--------------------------------------------------|


Bridge to Last Chorus

Guitar 1
eb|-----------------------|
Bb|-----------------------|
Gb|--------------------5--|
Db|--5------3------2---5--|
Ab|--5------3------2---3--|  repeat alot.
Eb|--3------1------0---3--|

Guitar 2
eb|---------------------------|
Bb|---------------------------|
Gb|--4--4-5-7-5--5-7-5--4--0--|
Db|--5--5-5-5-3--3-3-3--2--2--|  repeat alot.
Ab|---------------------------|
Eb|---------------------------|

Then this bridge
eb|------------------|
Bb|------------------|
Gb|------------------|
Db|--7--5-7--5-7-5-7-|
Ab|--5--5-5--5-5-5-5-|
Eb|------------------|

and a key change.


Both Guitars
eb|--------------------------------------------------|
Bb|--------------------------------------------------|
Gb|--------------------------7--7--7--7--9--9--9--9--|
Db|--7--7--7--7--5--5--5--5--7--7--7--7--9--9--9--9--|  repeat like 8 times.
Ab|--7--7--7--7--5--5--5--5--5--5--5--5--7--7--7--7--|
Eb|--5--5--5--5--3--3--3--3--5--5--5--5--7--7--7--7--|

End on a Ab and it's over!

Keep Rockin'.
Related for Sick With You tab