Song name
# A B C D E F G H I J K L M N O P Q R S T U V W X Y Z

Gob - Everybodys Getting Hooked Up tab

Tuning: Db Ab Db Gb Bb Eb

INTRO
|-------------------------------------------------------------------|
|-------------------------------------------------------------------|
|---------------------8p6-8------------------------8p6-8------------|
|-------------------------------------------------------------------|
|---6---4---6-----------------------6---4---6-----------------------|
|---6---4---6-----------------------6---4---6-----------------------|

|-------------------------------------------------------------------|
|-------------------------------------------------------------------|
|---999--888--999--888--99--88--------------------------------------|
|---xxx--xxx--xxx--xxx--xx--xx--------------------------------------|
|---777--666--777--666--77--66--------------------------------------|
|-------------------------------------------------------------------|

|-------------------------------------------------------------------|
|-------------------------------------------------------------------|
|---------------------8p6-8-------------------------8p6-8-----------|
|-------------------------------------------------------------------|
|---6---4---6-----------------------6---4---6-----------------------|
|---6---4---6-----------------------6---4---6-----------------------|

PRE-VERSE
|-------------------------------------------------------------------|
|-------------------------------------------------------------------|
|-------------------------------------------------------------------|
|----6666--6666--6--------------------------------------------------|
|----4444--4444--4--6----222--222--222------------------------------|
|-------------------6----222--222--222------------------------------|

|-------------------------------------------------------------------|
|-------------------------------------------------------------------|
|-------------------------------------------------------------------|
|----6666--6666--6--------------------------------------------------|
|----4444--4444--4--6----222--222--222------------------------------|
|-------------------6----222--222--222------------------------------|

VERSE
|-------------------------------------------------------------------|
|-------------------------------------------------------------------|
|-------------------------------------------------------------------|(X2)
|----6666--6666--6--------------------------------------------------|
|----4444--4444--4--6----222--222--222------------------------------|
|-------------------6----222--222--222------------------------------|

PRE-CHORUS
|-------------------------------------------------------------------|
|-------------------------------------------------------------------|
|-------------------------------------------------------------------|(X2)
|---4444444444444444------------------------------------------------|
|---2222222222222222--2222222222222222------------------------------|
|---------------------2222222222222222------------------------------|

CHORUS
|-------------------------------------------------------------------|
|---------------------555-444-555-444-55-44-------------------------|
|---------------------444-444-444-444-44-44-------------------------|
|-------------------------------------------------------------------|
|---66--44----------------------------------------------------------|
|---66--44----------------------------------------------------------|

|-------------------------------------------------------------------|
|-------------------------------------------------------------------|
|----------------------------8h9-8h9-8------------------------------|
|-------------------------------------------------------------------|
|---66--4444--2222--------------------------------------------------|
|---66--4444--2222--------------------------------------------------|

VERSE
|-------------------------------------------------------------------|
|-------------------------------------------------------------------|
|-------------------------------------------------------------------|(X2)
|----6666--6666--6--------------------------------------------------|
|----4444--4444--4--6----222--222--222------------------------------|
|-------------------6----222--222--222------------------------------|

PRE-CHORUS
|-------------------------------------------------------------------|
|-------------------------------------------------------------------|
|-------------------------------------------------------------------|(X2)
|---4444444444444444------------------------------------------------|
|---2222222222222222--2222222222222222------------------------------|
|---------------------2222222222222222------------------------------|

CHORUS
|-------------------------------------------------------------------|
|---------------------555-444-555-444-55-44-------------------------|
|---------------------444-444-444-444-44-44-------------------------|
|-------------------------------------------------------------------|
|---66--44----------------------------------------------------------|
|---66--44----------------------------------------------------------|

|-------------------------------------------------------------------|
|-------------------------------------------------------------------|
|----------------------------8h9-8h9-8------------------------------|
|-------------------------------------------------------------------|
|---66--4444--2222--------------------------------------------------|
|---66--4444--2222--------------------------------------------------|

BRIDGE
|-------------------------------------------------------------------|
|-------------------------------------------------------------------|
|-----------------------------8h9-8h9-8-----------------------------|(X2)
|---4444------------------------------------------------------------|
|---2222-4444-6666--------------------------------------------------|
|--------4444-6666--------------------------------------------------|

|-------------------------------------------------------------------|
|-------------------------------------------------------------------|
|-------------------------------------------------------------------|
|---4444------------------------------------------------------------|
|---2222-4444-6666-2222---------------------------------------------|
|--------4444-6666-2222---------------------------------------------|

 
|-------------------------------------------------------------------|
|-------------------------------------------------------------------|
|-------------------------------------------------------------------|
|---4444------------------------------------------------------------|
|---2222-4444-222222--666-444---------------------------------------|
|--------4444-222222--666-444---------------------------------------|

|------------7---------------|
|---------7------------------|
|---8h9----------------------|(X24)
|----------------------------|
|----------------------------|
|----------------------------|

|-------------------------------------------------------------------|
|-------------------------------------------------------------------|
|-------------------------------------------------------------------|
|----6666--6666--6--------------------------------------------------|
|----4444--4444--4--6----222--222--222------------------------------|
|-------------------6----222--222--222------------------------------| 

|-------------------------------------------------------------------|
|-------------------------------------------------------------------|
|-------------------------------------------------------------------|
|----6666--6666--6--------------------------------------------------|
|----4444--4444--4--6----222--222--222------------------------------|
|-------------------6----222--222--222------------------------------|

|-------------------------------------------------------------------|
|-------------------------------------------------------------------|
|-------------------------------------------------------------------|
|------6666--6666-6----6666-6666--6----6666-6666--6-----------------|
|---6--4444--4444-4-6--4444-4444--4-6--4444-4444--4-6---------------|
|---6---------------6---------------6---------------6---------------|

|-------------------------------------------------------------------|
|-------------------------------------------------------------------|
|----------------------------///Pickslide///------------------------|
|-------------------------------------------------------------------|
|---222222222222----------------------------------------------------|
|---222222222222----------------------------------------------------|

OUTRO
|-------------------------------------------------------------------|
|-------------------------------------------------------------------|
|-----------------------------8h9-8h9-8-----------------------------|(X2)
|---4444------------------------------------------------------------|
|---2222-4444-6666--------------------------------------------------|
|--------4444-6666--------------------------------------------------|

|-------------------------------------------------------------------|
|-------------------------------------------------------------------|
|-------------------------------------------------------------------|(X2)
|---4444------------------------------------------------------------|
|---2222-4444-6666-2222---------------------------------------------|
|--------4444-6666-2222---------------------------------------------|

Guitar 1:
|-------------------------------------------------------------------|
|-------------------------------------------------------------------|
|-------------------------------------------------------------------|
|---4444-4444-4444-4444-4444-4444-4444-4444-------------------------|
|---2222-2222-2222-2222-2222-2222-2222-2222-------------------------|
|-------------------------------------------------------------------|

Guitar 2:
|----0--0--0--0--0--0--0--0--0--0-----------------------------------|
|----12-12-12-12-12-12-12-12-12-12----------------------------------|
|-------------------------------------------------------------------|(X10)
|-------------------------------------------------------------------|
|-------------------------------------------------------------------|
|-------------------------------------------------------------------|

                         Tabbed by: ROCKERDUDE38









Tap to rate this tab
# A B C D E F G H I J K L M N O P Q R S T U V W X Y Z