Song name
# A B C D E F G H I J K L M N O P Q R S T U V W X Y Z

Gob - Bad Day tab

Song: Bad Day
Band: Gob
Tabbed by: Mit (send_in_the_klowns@hotmail.com)

Intro:
e|--------------------------------------------------------------------|
B|--------------------------------------------------------------------|
G|-9---7----9---------------------------------------------------------|
D|-9-5-7----9-5-7-----------------------------------------------------|
A|-7-5-5----7-5-7-----------------------------------------------------|
E|---3--------3-5-----------------------------------------------------|

Verse:
e|--------------------------------------------------------------------|
B|--------------------------------------------------------------------|
G|-9---7--------------------------9---7-------------------------------|
D|-9-5-7-7------------------7-----9-5-7-7-------------------7---------|
A|-7-5-5-7------------------7-----7-5-5-7-------------------7---------|
E|---3---5-do eight times---5-------3---5-do four times-----5---------|

Break:
e|--------------------------------------------------------------------|
B|--------------------------------------------------------------------|
G|-9---7--9-----------------------------------------------------------|
D|-9-5-7--9-5-7-------------------------------------------------------|
A|-7-5-5--7-5-7-------------------------------------------------------|
E|---3------3-5-------------------------------------------------------|

Verse 2:
e|--------------------------------------------------------------------|
B|--------------------------------------------------------------------|
G|-9---7--------------------------------------------------------------|
D|-9-5-7-7------------------7-----------------------------------------|
A|-7-5-5-7------------------7-----------------------------------------|
E|---3---5-do six times-----5-----------------------------------------|

Bridge:
e|--------------------------------------------------------------------|
B|--------------------------------------------------------------------|
G|----7---------------------------------------------------------------|
D|--5-7--7------------------------------------------------------------|
A|--5-5--7------------------------------------------------------------|
E|--3----5-do four times----------------------------------------------|

Break:
e|--------------------------------------------------------------------|
B|--------------------------------------------------------------------|
G|-9---7--------------------------------------------------------------|
D|-9-5-7--------------------------------------------------------------|
A|-7-5-5--------------------------------------------------------------|
E|---3----------------------------------------------------------------|

Verse 3:
e|--------------------------------------------------------------------|
B|--------------------------------------------------------------------|
G|-9---7--------------------------------------------------------------|
D|-9-5-7-7------------------------------------------------------------|
A|-7-5-5-7------------------------------------------------------------|
E|---3---5--do five times---------------------------------------------|
Tap to rate this tab
# A B C D E F G H I J K L M N O P Q R S T U V W X Y Z