Song name
# A B C D E F G H I J K L M N O P Q R S T U V W X Y Z

Gob - The Perfect Remedy chords

Highlighted       Show chord diagrams
Gob
The Perfect Remedy
World According To Gob
2001
Submitted by: paramore_fans@yahoo.com

Legend:
Tom Thacker: Rhythm Guitar
Theo Goutzkinakis: Lead Guitar
Craig Wood: Bass

Key: Eb

Tuning: Standard EADGBe

Chords used:
Bb/D - x587xx
Eb -   x68886
Cm -   x35543
Bb -   x13331
G# -   466544


Craig:
       Bb/D                G#                Cm             Eb        Bb
G|-7-7-7-7-7-7-7-7-|-1-1-1-1-1-1-1-1-|-5-5-5-5-5-5-5-5-|-8-8-8-8-|-3-3-3-3-|
D|-----------------|-----------------|-----------------|---------|---------|
A|-----------------|-----------------|-----------------|---------|---------| x3
E|-----------------|-----------------|-----------------|---------|---------|


Tom:
   Bb/D  G#  Cm Eb   Bb
e|-----|---|---|---|---|
B|--3--|-3-|-3-|-3-|-3-|
G|-----|---|---|---|---|
D|-----|---|---|---|---| x2
A|-----|---|---|---|---|
E|-----|---|---|---|---|

Tom: 3rd turn
    Bb/D     G#      Cm      Eb      Bb
e|-------|-------|-------|-------|-------|
B|-3-4---|-3-4---|-3-4---|-3-4---|-3-4---|
G|-----3-|-----3-|-----3-|-----3-|-----3-|
D|-------|-------|-------|-------|-------|
A|-------|-------|-------|-------|-------|
E|-------|-------|-------|-------|-------|
    x2       x2      x2


Theo: will only enter at 2nd turn
    Bb/D     G#     Cm    Eb   Bb
e|-1-----|-1-----|-1-----|--|-1-----|
B|-----1-|-----1-|-----1-|--|-----1-|
G|---3---|---3---|---3---|--|---3---|
D|-------|-------|-------|--|-------|
A|-------|-------|-------|--|-------|
E|-------|-------|-------|--|-------|

Theo: 3rd turn
   Bb/D  G#   Cm   Eb  Bb
e|--1--|-1-|-1--1-|-1-|--|
B|-----|---|------|---|--|
G|-----|---|------|---|--|
D|-----|---|------|---|--|
A|-----|---|------|---|--|
E|-----|---|------|---|--|


Distrotion: 

Tom: Bb/D-Eb-Bb/D-Eb-G#--Cm--Eb--Bb-- x2

Theo:
e|-------|
B|-4-----|
G|---3-5-|
D|-------|
A|-------|
E|-------|


Verse 1:
Bb/D
    If I paint a picture 
       G#
of the days gone by
Cm
  I could tell a story
          Eb
Minus the truth
         Bb
It's the only way I
Bb/D
    Couldn't walk a 
              G#
meter in your shoes
You'll see
When you see
Cm
   They're soaked
                       Eb
I left them out in the rain
            Bb
And they're heavy like weights


Theo: at "coudn't walk a meter"
e|--------------------|
B|-3----3----3----3---|
G|---3----3----3----3-|
D|--------------------|
A|--------------------|
E|--------------------|


Refrain 1:
G#                        Cm  G#
I could help you choose a name
G#                       Cm G#
First thing that I saw today
G#                 Cm     G#
  Make the best of new conditions
G#                   Cm  G#
  It'll never be the same


Verse 2:
Bb/D
    I thought about you 
      G#
in my bed last night
Cm
  You were a thousand years old
Eb      Bb
  Had a million boyfriends
Bb/D
    I have a rubber stopper to 
   G#
prevent the words from happening
Cm
  Like a troubled spot within and 
Eb                Bb
press with all my mightiness


Refrain 2:
G#                   Cm G#
Bend it back all the way
G#                   Cm   G#
This one it'll never break
G#                 Cm   G#
  Make the best of old ideas
G#                 Cm  G#
It'll never be the same


Chorus:
Bb/D    Eb
Pent up in me
Bb/D    Eb    G#
Tied up in my room
I found the 
Cm
perfect remedy
         Eb
Spit you out
        Bb
Or just chew it
Bb/D    Eb
Pent up in me
Bb/D    Eb    G#
Tied up in my room
            Cm
You got the best
cut of the deal
        Eb
You lay down
         Bb
With the newest Yeah


Guitar Solo: 

Tom: G#--Eb--G#--Eb--G#--

Theo:
e|-----------------|
B|-----------------|
G|-----0-------0---|
D|-1-3---3-1-3---3-| x20
A|-----------------|
E|-----------------|


Silence: Repeat 2nd turn to 3rd turn of intro


(Repeat Refrain 2)
(Repeat Chorus until fade)
Tap to rate this tab
# A B C D E F G H I J K L M N O P Q R S T U V W X Y Z