Song name
# A B C D E F G H I J K L M N O P Q R S T U V W X Y Z

Gob - Self Appointed Leader tab

Gob
Self Appointed Leader
How Far Shallow Takes You
1998
Submitted by: paramore_fans@yahoo.com

Key: F#

Tuning: Standard EADGBe

Chords used:
Ebm -  x68876
B -    x24442
F# -   244322
C# -   x46664
G#m -  466444
Bbm -  x13321
C#/F - 143xxx


Intro:

Theo:
Ebm-C#-Ebm-F#-Ebm-C#-B-C----| x3
Ebm-C#-Ebm-F#-Ebm-C#-B------|

        C#              Ebm               B                G#m               Bbm
e|---------------|---------------|-----------------|-----------------|-----------------|
B|---------------|---------------|-----------------|-----------------|-----------2-----|
G|-6-------------|-8-----------8-|-4-------------4-|-----------------|-3---3-----------|
D|-6----1h3h4----|-8-----------8-|-4-------------4-|-6---------------|-3---3-----------|
A|-4--4--------4-|-6-6-6-6-6-6-6-|-2-2-2-2-2-2-2-2-|-6---------------|-1-1-1-1-1---1-1-|
E|---------------|---------------|-----------------|-4-4-4-4-4-4-4-4-|-----------------|

       Ebm                B                G#m               Bbm
e|---------------|-----------------|-----------------|-----------------|
B|---------------|-----------------|-----------------|-----------2-----|
G|-8-----------8-|-4---4-4-------4-|-----------------|-3---3-----------|
D|-8-----------8-|-4---4-4-hold--4-|-6---------------|-3---3-----------|
A|-6-6-6-6-6-6-6-|-2-2-2-2-------2-|-6---------------|-1-1-1-1-1---1-1-|
E|---------------|-----------------|-4-4-4-4-4-4-4-4-|-----------------|

     Ebm
e|---------|
B|---------|
G|-8---8-8-|
D|-8---8-8-|
A|-6---6-6-|
E|---------|


Tom: at 2nd turn
e|----1-2--------1-2--6-|
B|-4-------2--4---------|
G|----------------------|
D|----------------------|
A|----------------------|
E|----------------------|


Verse 1:
        Ebm
did you think
B
i was blind
        G#m
did you think
                Bbm
that i couldn't see
        Ebm
did you think i'd
B
just dismiss
       G#m           bbm
your betrayal so easily


Chorus:
B
  sick and tired of
F#
  sick and tired
G#m
   sick and tired of
Bbm
your negativity
B
  sick and tired
F#
  sick and tired of
G#m
   sick and tired of
Bbm
your contridictions


Interlude:

Theo:
Ebm-C#-Ebm-F#-Ebm-C#-B-C----| x3
Ebm-C#-Ebm-F#-Ebm-C#-B------|


        C#           Ebm
e|---------------|---------|
B|---------------|---------|
G|-6-------------|-8---8-8-|
D|-6----1h3h4----|-8---8-8-|
A|-4--4--------4-|-6---6-6-|
E|---------------|---------|


Tom: at 2nd turn
e|----1-2--------1-2--6-|
B|-4-------2--4---------|
G|----------------------|
D|----------------------|
A|----------------------|
E|----------------------|


Verse 2:
                 Ebm
you should understand
                 B
in order to make change
               G#m
more than just words and
               Bbm
ideologies are needed
                     Ebm
you gotta be down to earth
                       B
so get it through your head
         G#m
nobody appointed
                Bbm
you any kind of leader
       Ebm
and to think i
B
  once trusted you
G#m              Bbm
used to call you friend
         Ebm
i can forgive
              B
but i cant forget
          G#m
i wont be hurt
        Bbm
by you again


(Repeat Chorus)


Guitar Solo: x means palm mute

Theo:
                 B                                  C#
e|---------------------------------|---------------------------------|
B|---------------------------------|---------------------------------|
G|---------------------------------|---------------------------------|
D|-----4---3-----4---3-----4---3---|-----3---4-----3---4-----3---4---| x7
A|-2-2---2---2-2---2---2-2---2---2-|-4-4---4---4-4---4---4-4---4---4-|
E|---------------------------------|---------------------------------|
   x x   x   x x   x   x x   x   x   x x   x   x x   x   x x   x   x

                 B                                  C#
e|---------------------------------|----------------------------------|
B|---------------------------------|----------------------------------|
G|---------------------------------|----------------------------------|
D|-----4---3-----4---3-----4---3---|-----3---4-----3---4-----1h3h4----|
A|-2-2---2---2-2---2---2-2---2---2-|-4-4---4---4-4---4---4-4--------4-|
E|---------------------------------|----------------------------------|
   x x   x   x x   x   x x   x   x   x x   x   x x   x   x x

                 B                                  C#
e|---------------------------------|---------------------------------|
B|---------------------------------|---------------------------------|
G|---------------------------------|---------------------------------|
D|-----4---3-----4---3-----4---3---|-----3---4-----3---4-----3---4---| x2
A|-2-2---2---2-2---2---2-2---2---2-|-4-4---4---4-4---4---4-4---4---4-|
E|---------------------------------|---------------------------------|
   x x   x   x x   x   x x   x   x   x x   x   x x   x   x x   x   x


Tom:
   B     C#    B     C#    B   C#  B                 C#
e|---|-------|---|-------|---|---|---|---------------------------------|
B|---|-------|---|-------|---|---|---|---------------------------------|
G|-4-|-6-6-6-|-4-|-6-6-6-|-4-|-6-|-4-|-6-6-6-6-6-6-6-6-6-6-6-6-6-6-6-6-|
D|-4-|-6-6-6-|-4-|-6-6-6-|-4-|-6-|-4-|-6-6-6-6-6-6-6-6-6-6-6-6-6-6-6-6-|
A|-2-|-4-4-4-|-2-|-4-4-4-|-2-|-4-|-2-|-4-4-4-4-4-4-4-4-4-4-4-4-4-4-4-4-|
E|---|-------|---|-------|---|---|---|---------------------------------|
                                       x x x x x x x x x x x x x x x x

                 B                                  C#
e|---------------------------------|---------------------------------|
B|---------------------------------|---------------------------------|
G|---------------------------------|---------------------------------|
D|-----4---3-----4---3-----4---3---|-----3---4-----3---4-----3---4---| x2
A|-2-2---2---2-2---2---2-2---2---2-|-4-4---4---4-4---4---4-4---4---4-|
E|---------------------------------|---------------------------------|
   x x   x   x x   x   x x   x   x   x x   x   x x   x   x x   x   x

                 B                                  C#
e|---------------------------------|---------------------------------|
B|---------------------------------|---------------------------------|
G|-----3---1-----3---1-----3---1---|-----3---4-----3---4-----3---4---|
D|-4-4---4---4-4---4---4-4---4---4-|-3-3---3---3-3---3---3-3---3---3-|
A|---------------------------------|---------------------------------|
E|---------------------------------|---------------------------------|
   x x   x   x x   x   x x   x   x   x x   x   x x   x   x x   x   x

                 B                                  C#
e|---------------------------------|---------------------------------|
B|---------------------------------|---------------------------------|
G|-----3---1-----3---1-----3---1---|-----1---3-----1---3-----1---3---|
D|-4-4---4---4-4---4---4-4---4---4-|-3-3---3---3-3---3---3-3---3---3-|
A|---------------------------------|---------------------------------|
E|---------------------------------|---------------------------------|
   x x   x   x x   x   x x   x   x   x x   x   x x   x   x x   x   x

                 B                                  C#
e|---------------------------------|---------------------------------|
B|---------------------------------|---------------------------------|
G|-----6---4-----6---4-----6---4---|-----8---6-----8---6-----8---6---|
D|-4-4---4---4-4---4---4-4---4---4-|-6-6---6---6-6---6---6-6---6---6-|
A|---------------------------------|---------------------------------|
E|---------------------------------|---------------------------------|
   x x   x   x x   x   x x   x   x   x x   x   x x   x   x x   x   x

Outro:
F#     C#/F           Ebm  B C#
you've got it in your mind
     F#
that you've been appointed
C#/F               Ebm B C#
some kind of leader
F#     C#/F           Ebm  B C#
you've got it in your mind
F#        C#/F           Ebm  B C# B C# B C# Ebm(hold)
you' have got it in your mind
Tap to rate this tab
# A B C D E F G H I J K L M N O P Q R S T U V W X Y Z