Song name
# A B C D E F G H I J K L M N O P Q R S T U V W X Y Z

Gob - Soda tab

Gob
Soda
Too Late No Friends
1996
Submitted by: paramore_fans@yahoo.com

Key: F#

Tuning: Standard EADGBe

Chords used:
F# -  244322
Ebm - x68876
B -   x24442
C# -  x46664
Bbm - x13321


Intro:

Tom:
F#---, F#--Bbm--B--F#-- x2

Theo:
e|----------------------------1----------------2p1---4p1h2p1---6p2---2p1-------|
B|---------2-4-2----------2-4-----------2-4-2------2---------2-----2-----2-----|
G|---3-3-3----------3-3-3---------3-3-3------------------------------------3---|
D|-4--------------4--------------4-------------------------------------------4-|
A|-----------------------------------------------------------------------------|
E|-----------------------------------------------------------------------------|

e|-----------3----2----2---4-6--------3----2----2--4-6-|
B|---------2---4-----2---2----------2---4-----2--------|
G|-3-----3------------------------3--------------------|
D|-----4------------------------4----------------------|
A|-----------------------------------------------------|
E|-----------------------------------------------------|

Verse 1:
       F#
Like i knew
               Bbm
that you would come to me
         B
and we'd run away with
        F#
all our dreams
         F#
dont you think
            Bbm
that i'd prepare a bit
   B
to try and make
          F#
it all complete
        F#
to run away
            Bbm
its not the kind of thing
       B              F#
that i do in a normal day
           F#
but its so cool
            Bbm
that were together
          B
and were smiling
         Bbm
drinking soda


Chorus:
Ebm       C#        B
i want to jump in a lake
F#
sun shining down on a
C#           B
beach in the summer
(Repeat)


Interlude: Guitar Solo

Tom:
F#---, F#--Bbm--B--F#-- x4

Theo:
e|----------------------------1----------------2p1---4p1h2p1---6p2---2p1-------|
B|---------2-4-2----------2-4-----------2-4-2------2---------2-----2-----2-----|
G|---3-3-3----------3-3-3---------3-3-3------------------------------------3---|
D|-4--------------4--------------4-------------------------------------------4-|
A|-----------------------------------------------------------------------------|
E|-----------------------------------------------------------------------------|

e|-----------3----2----2---4-6--------3----2----2--4-6-|
B|---------2---4-----2---2----------2---4-----2--------|
G|-3-----3------------------------3--------------------|
D|-----4------------------------4----------------------|
A|-----------------------------------------------------|
E|-----------------------------------------------------|

e|-----------3-------------------3----2----1h2p1---2h4-|
B|---------2---4--4-2----------2---4-----2-------2-----|
G|-3-----3------------4-3----3-------------------------|
D|-----4-------------------4---------------------------|
A|-----------------------------------------------------|
E|-----------------------------------------------------|


(Repeat Chorus x2)


Outro: F#(hold)
Tap to rate this tab
# A B C D E F G H I J K L M N O P Q R S T U V W X Y Z