Song name
# A B C D E F G H I J K L M N O P Q R S T U V W X Y Z

Gob - License From A Cereal Box chords

Highlighted       Show chord diagrams
Gob
License From Cereal Box
How Far Shallow Takes You
1998
Submitted by: paramore_fans@yahoo.com

Key: Bb

Tuning: Standard EADGBe

Chords used:
G# -  466544
F# -  244322
Bb -  x13331
C# -  x46664
Eb -  x68886
F -   133211
G#m - 466444
Ebm - x68876


Intro: Car Starting then Drumbeats
G#---G#---G#-F#-G#-

Distortion: Bb--F-Eb--F-Bb--F-F--C#-F-x2

Car Honks and drivers trash talks to other cars
Bb-- x6, G#--F--


Verse 1:
   C#    Bb
It seems every time we're driving 
                            G#
down the transcanada number 1
    Bb
The traffic's growing worse 
     F  C#   Bb
everyday  it doesn't really help 
When there's a bozo at the wheel 
 G#     Bb
slowing down cutting people 
    F                  C#
Off I don't think it's funny


Chorus:
Bb           F Eb
  Hit the gas    hit the brakes 
F Bb                F
    In a traffic jam I think I'm 
C#           Bb           F    Eb
late for work  got your license 
              F  Bb
From a cereal box  you don't know how 
   F                   C#
to drive you're just a fucking jerk


Post Chorus 1: x2, x means palm mute
       Bb              G#             Bb           Cool Riff
e|--------------|--------------|--------------|-----------------|
B|--------------|--------------|--------------|-4-2---2---------|
G|-----3------3-|-----1------1-|-----3------3-|-----3---3-2-1---|
D|--------------|--------------|--------------|---------------4-|
A|-1-1----1-1---|--------------|-1-1----1-1---|-----------------|
E|--------------|-4-4----4-4---|--------------|-----------------|
   x x    x x     x x    x x     x x    x x


Verse 2:
   Bb
It never fails getting on 
there's always something going 
G#      Bb      
Wrong a lot of cars a lot of smog 
F             C#
  It's pretty hazy when a 
Bb
blowout in a tire becomes 
                  F   Bb
Such a big desire for idiots to 
           F                C#
watch slow down it makes me crazy
Bb                         G#
  Think you know how I feel 
Bb                 F       C#
  what I need is a new automobile 
Bb
  Like the game spyhunter 
             G# Bb
I could enjoy   anyone 
Who would annoy set the 
F        C#
missiles seek and destroy


(Repeat Chorus twice)


Post Chorus 2:
       Bb              G#             Bb           Cool Riff
e|--------------|--------------|--------------|-----------------|
B|--------------|--------------|--------------|-4-2---2---------|
G|-----3------3-|-----1------1-|-----3------3-|-----3---3-2-1---|
D|--------------|--------------|--------------|---------------4-|
A|-1-1----1-1---|--------------|-1-1----1-1---|-----------------|
E|--------------|-4-4----4-4---|--------------|-----------------|
   x x    x x     x x    x x     x x    x x

       Bb              G#             Bb
e|--------------|--------------|--------------|
B|--------------|--------------|--------------|
G|-----3------3-|-----1------1-|-----3------3-|
D|--------------|--------------|--------------|
A|-1-1----1-1---|--------------|-1-1----1-1---|
E|--------------|-4-4----4-4---|--------------|
   x x    x x     x x    x x     x x    x x


Outro: Beat Changes
                 G#m
e|-------------------------------------|
B|------2h3p2--------------------------|
G|----------------1h4p1------------4-1-|
D|-6-6---------6---------6-2-1-2-------| x2
A|-6-6---------6---------6-------2-----|
E|-4-4---------4---------4-------------|
   x x         x         x

                            Ebm
e|---------------------------------------------------------6-|
B|-4-2---2---------4-2---2---------4-2---2-----------------7-|
G|-----3---3-2-1-------3---3-2-1-------3---3-2-1---8-8-8-8-8-|
D|---------------4---------------4---------------4-8-8-8-8-8-|
A|-------------------------------------------------6-6-6-6-6-|
E|-----------------------------------------------------------|
Tap to rate this tab
# A B C D E F G H I J K L M N O P Q R S T U V W X Y Z