Song name
# A B C D E F G H I J K L M N O P Q R S T U V W X Y Z

Gob - I Want You Back Baby tab

Band - Gob
Song - I Want You Back Baby
Album - Too Late...No Friends
Tabbed By: SumFX (Tyler Freear)

Very Easy Song With A Simple Solo :)

Verse
|----------------------------|
|----------------------------|
|----------------------------|
|-1010101010101010-----------|
|-8-8-8-8-8-8-8-8--88888888--|
|------------------66666666--|
                   ........

Chorus
|-------------------------------------|
|-------------------------------------|
|-------------------------------------|
|-7777-5555---------------------------|
|-5555-3333--7/8-88--7/8-88--7/8-888--|
|------------5/6-66--5/6-66--5/6-666--|

Solo Rhythm Guitar
|-------------------|--------------------|
|-------------------|--------------------|
|-------------------|--------------------|
|----------55555555-|----------2222-3333-|
|-33333333-33333333-|-33333333-0000-1111-|
|-11111111----------|-11111111-----------|

|-----|
|-----|
|-----|
|-----|
|-3---|
|-1---|

Solo Lead Guitar
|----------------|-1-----3-----5-----3-----|
|-5h6-666666-6p5-|-3b(5)-5b(7)-7b(9)-5b(7)-|
|-5---555555---5-|-------------------------|
|----------------|-------------------------|
|----------------|-------------------------|
|----------------|-------------------------|

|-1--------|
|-3b(5)----|
|----------|
|----------|
|----------|
|----------|

Bridge
|---------------------------|
|---------------------------|
|---------------------------|
|-10--Feedback--------------|
|-8------------8--Feedback--|
|--------------6------------|

Structure
Verse
Chorus
Verse
Chorus
Solo x2
Bridge
Chorus

Lovely, There You Go :)

Rate and Comments Please!
Tap to rate this tab
 
# A B C D E F G H I J K L M N O P Q R S T U V W X Y Z