Guitaretab - guitar tabs
Song name
# A B C D E F G H I J K L M N O P Q R S T U V W X Y Z
Home / G / Gob / Soda tab

Gob - Soda tab

Song: Soda 
   Band: Gob 
   Tabbed by: Jen Hennessy  


   Intro:(X2) 

   e---------------------------- 
   B-----oh3h5-5-3-------0h3h5-5-7-- 
   G--0--------------0------------- 
   D--0--------------0------------ 
   A--x--------------x---------- 
   E--3--------------3------------ 


   Riff A: 
   e--------------------------------------------------------- 
   B--0-3-5-7-8--5--8-5-8-10-12--------0-3-5-7-8--5--8-5-8-5-3-- 
   G---------------------------------------------------------- 
   D--------------------------------------------------------- 
   A--------------------------------------------------------- 
   E----------------------------------------------------------- 


   The rhythm guitar plays this:G Eii C G (x4) (last time it ends on B,not G) 


   OUTRO--plays intro twice,riff A,then this: 

   e--------------------------------------------------------- 
   B---o-3-5-7-8--5--3-5-3-1-0--------0-3-5-7-8--5--8-5-8-5-10----- 
   G---------------------------------------------------------- 
   D----------------------------------------------------- 
   A----------------------------------------------------------- 
   E-------------------------------------------------------- 
[ Tab from: http://www.guitaretab.com/g/gob/27643.html ]
Related for Soda tab