Guitaretab - guitar tabs
Song name
# A B C D E F G H I J K L M N O P Q R S T U V W X Y Z

Gob - I Hear You Calling tab

I Hear You Calling                                 Gob




  Q=146
 4/4
  Gtr I
  W          W          W          W
|----------|----------|----------|------|
|----------|----------|----------|------|
|----------|----------|----------|------|
|----------|----------|----------|------|


  W          W          W          W
|----------|----------|----------|------|
|----------|----------|----------|------|
|----------|----------|----------|------|
|----------|----------|----------|------|


  E E E E E E E E   Q  Q  E E E E   E E E E E E E E   E E E E E E E E
|-----------------|---------------|-----------------|-----------------|
|-----------------|---------------|-----------------|-----------------|
|-2-2-2-2-2-2-2-2-|-4-------------|-----------------|-----------------|
|-----------------|----4--4-4-4-4-|-0-0-0-0-0-0-0-0-|-4-4-4-4-4-4-4-4-|


  E E E E E E E E   E E E E E E E E   E E E E E E E E   E E E E E E E E
|-----------------|-----------------|-----------------|-----------------|
|-----------------|-----------------|-----------------|-----------------|
|-----------------|-----------------|-----------------|-----------------|
|-0-0-0-0-0-0-0-0-|-4-4-4-4-4-4-4-4-|-0-0-0-0-0-0-0-0-|-2-2-2-2-2-2-2-2-|


  E E E E E E E E   Q  Q  E E E E   E E E E E E E E   E E E E E E E E
|-----------------|---------------|-----------------|-----------------|
|-----------------|---------------|-----------------|-----------------|
|-2-2-2-2-2-2-2-2-|-4-------------|-----------------|-----------------|
|-----------------|----4--4-4-4-4-|-0-0-0-0-0-0-0-0-|-4-4-4-4-4-4-4-4-|


  E E E E E E E E   E E E E E E E E   E E E E E E E E   E E E E E E E E
|-----------------|-----------------|-----------------|-----------------|
|-----------------|-----------------|-----------------|-----------------|
|-----------------|-----------------|-----------------|-----------------|
|-0-0-0-0-0-0-0-0-|-4-4-4-4-4-4-4-4-|-0-0-0-0-0-0-0-0-|-2-2-2-2-2-2-2-2-|


  E E E E E E E E   E E E E E E E E   E E E E E E E E   E E E E E E E E
|-----------------|-----------------|-----------------|-----------------|
|-----------------|-----------------|-----------------|-----------------|
|-----------------|-----------------|-4-4-4-4-4-4-4-4-|-----------------|
|-0-0-0-0-0-0-0-0-|-2-2-2-2-2-2-2-2-|-----------------|-4-4-4-4-4-4-4-4-|


  E E E E E E E E   E E E E E E E E   E E E E E E E E   E E E E E E E E
|-----------------|-----------------|-----------------|-----------------|
|-----------------|-----------------|-----------------|-----------------|
|-----------------|-----------------|-4-4-4-4-4-4-4-4-|-----------------|
|-0-0-0-0-0-0-0-0-|-2-2-2-2-2-2-2-2-|-----------------|-4-4-4-4-4-4-4-4-|


  E E E E E E E E   Q  Q  E E E E   E E E E E E E E   E E E E E E E E
|-----------------|---------------|-----------------|-----------------|
|-----------------|---------------|-----------------|-----------------|
|-2-2-2-2-2-2-2-2-|-4-------------|-----------------|-----------------|
|-----------------|----4--4-4-4-4-|-0-0-0-0-0-0-0-0-|-4-4-4-6-6-6-4-4-|


  E E E E E E E E   E E E E E E E E   E E E E E E E E   E E E E E E E E
|-----------------|-----------------|-----------------|-----------------|
|-----------------|-----------------|-----------------|-----------------|
|-----------------|-----------------|-----------------|-----------------|
|-0-0-0-0-0-0-0-0-|-4-4-4-6-6-6-4-4-|-0-0-0-0-0-0-0-0-|-2-2-2-2-2-2-2-2-|


  E E E E E E E E   Q  Q  E E E E   E E E E E E E E   E E E E E E E E
|-----------------|---------------|-----------------|-----------------|
|-----------------|---------------|-----------------|-----------------|
|-2-2-2-2-2-2-2-2-|-4-------------|-----------------|-----------------|
|-----------------|----4--4-4-4-4-|-0-0-0-0-0-0-0-0-|-4-4-4-6-6-6-4-4-|


  E E E E E E E E   E E E E E E E E   E E E E E E E E   E E E E E E E E
|-----------------|-----------------|-----------------|-----------------|
|-----------------|-----------------|-----------------|-----------------|
|-----------------|-----------------|-----------------|-----------------|
|-0-0-0-0-0-0-0-0-|-4-4-4-6-6-6-4-4-|-0-0-0-0-0-0-0-0-|-2-2-2-2-2-2-2-2-|


  E E E E E E E E   E E E E E E E E   E E E E E E E E   E E E E E E E E
|-----------------|-----------------|-----------------|-----------------|
|-----------------|-----------------|-----------------|-----------------|
|-----------------|-----------------|-4-4-4-4-4-4-4-4-|-----------------|
|-0-0-0-0-0-0-0-0-|-2-2-2-2-2-2-2-2-|-----------------|-4-4-4-4-4-4-4-4-|


  E E E E E E E E   E E E E E E E E   E E E E E E E E   E E E E E E E E
|-----------------|-----------------|-----------------|-----------------|
|-----------------|-----------------|-----------------|-----------------|
|-----------------|-----------------|-4-4-4-4-4-4-4-4-|-----------------|
|-0-0-0-0-0-0-0-0-|-2-2-2-2-2-2-2-2-|-----------------|---0-0-----2-2---|

[ Tab from: http://www.guitaretab.com/g/gob/29260.html ]
  E E E E E E E E   Q  Q  E E E E   E E E E E E E E   E E E E E E E E
|-----------------|---------------|-----------------|-----------------|
|-----------------|---------------|-----------------|-----------------|
|-2-2-2-2-2-2-2-2-|-4-------------|-----------------|-----------------|
|-----------------|----4--4-4-4-4-|-0-0-0-0-0-0-0-0-|-4-4-4-4-4-4-4-4-|


  E E E E E E E E   E E E E E E E E   E E E E E E E E   E E E E E E E E
|-----------------|-----------------|-----------------|-----------------|
|-----------------|-----------------|-----------------|-----------------|
|-----------------|-----------------|-----------------|-----------------|
|-0-0-0-0-0-0-0-0-|-4-4-4-4-4-4-4-4-|-0-0-0-0-0-0-0-0-|-2-2-2-2-2-2-2-2-|


  E E E E E E E E   Q  Q  E E E E   E E E E E E E E   E E E E E E E E
|-----------------|---------------|-----------------|-----------------|
|-----------------|---------------|-----------------|-----------------|
|-2-2-2-2-2-2-2-2-|-4-------------|-----------------|-----------------|
|-----------------|----4--4-4-4-4-|-0-0-0-0-0-0-0-0-|-4-4-4-4-4-4-4-4-|


  E E E E E E E E   E E E E E E E E   E E E E E E E E   E E E E E E E E
|-----------------|-----------------|-----------------|-----------------|
|-----------------|-----------------|-----------------|-----------------|
|-----------------|-----------------|-----------------|-----------------|
|-0-0-0-0-0-0-0-0-|-4-4-4-4-4-4-4-4-|-0-0-0-0-0-0-0-0-|-2-2-2-2-2-2-2-2-|


  E E E E E E E E   E E E E E E E E   E E E E E E E E   E E E E E E E E
|-----------------|-----------------|-----------------|-----------------|
|-----------------|-----------------|-----------------|-----------------|
|-----------------|-----------------|-4-4-4-4-4-4-4-4-|-----------------|
|-0-0-0-0-0-0-0-0-|-2-2-2-2-2-2-2-2-|-----------------|-4-4-4-4-4-4-4-4-|


  E E E E E E E E   E E E E E E E E   E E E E E E E E   E E E E E E E E
|-----------------|-----------------|-----------------|-----------------|
|-----------------|-----------------|-----------------|-----------------|
|-----------------|-----------------|-4-4-4-4-4-4-4-4-|-----------------|
|-0-0-0-0-0-0-0-0-|-2-2-2-2-2-2-2-2-|-----------------|-4-4-4-4-2-2-2-2-|


  E E E E E E E E   E E E E E E E E   E E E E E E E E   E E E E E E E E
|-----------------|-----------------|-----------------|-----------------|
|-----------------|-----------------|-----------------|-----------------|
|-----------------|-----------------|-4-4-4-4-4-4-4-4-|-----------------|
|-0-0-0-0-0-0-0-0-|-2-2-2-2-2-2-2-2-|-----------------|-4-4-4-4-4-4-4-4-|


  E E E E E E E E   E E E E E E E E   E E E E E E E E   E E E E E E E E
|-----------------|-----------------|-----------------|-----------------|
|-----------------|-----------------|-----------------|-----------------|
|-----------------|-----------------|-4-4-4-4-4-4-4-4-|-----------------|
|-0-0-0-0-0-0-0-0-|-2-2-2-2-2-2-2-2-|-----------------|-4-4-4-4-2-2-2-2-|


  E E E E E E E E   E E E E E E E E   E E E E E E E E   E E E E E E E E
|-----------------|-----------------|-----------------|-----------------|
|-----------------|-----------------|-----------------|-----------------|
|-----------------|-----------------|-4-4-4-4-4-4-4-4-|-----------------|
|-0-0-0-0-0-0-0-0-|-2-2-2-2-2-2-2-2-|-----------------|-4-4-4-4-4-4-4-4-|


  E E E E E E E E   E E E E E E E E   E E E E E E E E   E E E E E E E E
|-----------------|-----------------|-----------------|-----------------|
|-----------------|-----------------|-----------------|-----------------|
|-----------------|-----------------|-4-4-4-4-4-4-4-4-|-----------------|
|-0-0-0-0-0-0-0-0-|-2-2-2-2-2-2-2-2-|-----------------|-4-4-4-4-2-2-2-2-|


  E E E E E E E E   E E E E E E E E   E E E E E E E E   E E E E E E E E
|-----------------|-----------------|-----------------|-----------------|
|-----------------|-----------------|-----------------|-----------------|
|-----------------|-----------------|-4-4-4-4-4-4-4-4-|-----------------|
|-0-0-0-0-0-0-0-0-|-2-2-2-2-2-2-2-2-|-----------------|-4-4-4-4-4-4-4-4-|


  E E E E E E E E   E E E E E E E E   E E E E E E E E   E E E E E E E E
|-----------------|-----------------|-----------------|-----------------|
|-----------------|-----------------|-----------------|-----------------|
|-----------------|-----------------|-4-4-4-4-4-4-4-4-|-----------------|
|-0-0-0-0-0-0-0-0-|-2-2-2-2-2-2-2-2-|-----------------|-4-4-4-4-2-2-2-2-|


  E E E E E E E E   E E E E E E E E   E E E E E E E E   E E E E E E E E
|-----------------|-----------------|-----------------|-----------------|
|-----------------|-----------------|-----------------|-----------------|
|-----------------|-----------------|-4-4-4-4-4-4-4-4-|-----------------|
|-0-0-0-0-0-0-0-0-|-2-2-2-2-2-2-2-2-|-----------------|-4-4-4-4-4-4-4-4-|


  E E E E E E E E   E E E E E E E E   E E E E E E E E   E E E E E E E E
|-----------------|-----------------|-----------------|-----------------|
|-----------------|-----------------|-----------------|-----------------|
|-----------------|-----------------|-4-4-4-4-4-4-4-4-|-----------------|
|-0-0-0-0-0-0-0-0-|-2-2-2-2-2-2-2-2-|-----------------|-4-4-4-4-2-2-2-2-|


  E E E E E E E E   E E E E E E E E   E E E E E E E E   E E E E E E E E
|-----------------|-----------------|-----------------|-----------------*|
|-----------------|-----------------|-----------------|-----------------*|
|-----------------|-----------------|-4-4-4-4-4-4-4-4-|-----------------*|
|-0-0-0-0-0-0-0-0-|-2-2-2-2-2-2-2-2-|-----------------|-4-4-4-4-4-4-4-4-*|


Related for I Hear You Calling tab