Song name
# A B C D E F G H I J K L M N O P Q R S T U V W X Y Z

Gob - Marching Song tab

Gob
Marching Soon
Too Late No Friends
1996 Landspseed Records
Submitted by: paramore_fans@yahoo.com

Key: C#

Tuning: Standard EADGBe

Verse: x3
e|--------------------------|
B|--------------------------|
G|--------------------------|
D|------1-3-3-------1-------|
A|-4-4---------1-4----4---4-|
E|----------------------4---|

e|--------------------------|
B|--------------------------|
G|--------------------------|
D|------1-3-3----1--3-1---1-|
A|-4-4---------1--------4---|
E|--------------------------|

e|--------------------------|
B|--------------------------|
G|--------------------------|
D|------1-3-3-------1-------|
A|-4-4---------1-4----4---4-|
E|----------------------4---|

e|-------------------------|
B|-------------------------|
G|-------------------------|
D|------1-3--1-------------|
A|-4-4----------4----1-3-4-|
E|-----------------4-------|


Clapping


(Repeat Verse once)
Tap to rate this tab
# A B C D E F G H I J K L M N O P Q R S T U V W X Y Z