Song name
# A B C D E F G H I J K L M N O P Q R S T U V W X Y Z

Gob - Open Wounds tab

Song: Open Wounds
Band: Gob
Tuning:  Half Step down (Eb Ab Db Gb Bb Eb) or (D# G# C# F# A# D#)
You will need to listen for guitar 2ís part in the chorus.

Intro/Verse (x12)(Second guitar joins in same thing twice through)
Eb|-000-0000-0000-------|
Bb|-222-4444-0000-00000-|
Gb|---------------22222-|
Db|---------------------|
Ab|---------------------|
Eb|---------------------| 

Chorus (both guitars switch chords at the same time)
Guitar 1
Eb|--------------------------------------------------------|
Bb|--------------------------------------------------------|
Gb|-2------4------2------4------2------4------9------9-----|
Db|-2------4------2------4------2------4------9------9-----|
Ab|-0(x16)-2(x16)-0(x16)-2(x16)-0(x16)-2(x16)-7(x16)-7(x16)|
Eb|--------------------------------------------------------|
  ...................................................******

Guitar 2
Eb|-0------0------0------0------0------0------0------0------|
Bb|-2(x16)-4(x16)-2(x16)-4(x16)-2(x8)--4(x8)--5(x16)-5(x16)-|
Gb|---------------------------------------------------------|
Db|---------------------------------------------------------|
Ab|---------------------------------------------------------|
Eb|---------------------------------------------------------|

Intro/Verse(x6)

Chorus(x2)

Bridge
Eb|------------------------------------------|
Bb|------------------------------------------|
Gb|-6-6-66~----------------------------------|
Db|-6-6-66~---6-6-66~---7-7-77~---9~-9-9-9---|
Ab|-4-4-44~---6-6-66~---7-7-77~---9~-9-9-9---|
Eb|-----------4-4-44~---5-5-55~---7~-7-7-7---|

Eb|------------------------------------------|
Bb|------------------------------------------|
Gb|-6-6-66~----------------------------------|
Db|-6-6-66~---6-6-66~---7-7-77~---9-9-99-9-9-|
Ab|-4-4-44~---6-6-66~---7-7-77~---9-9-99-9-9-|
Eb|-----------4-4-44~---5-5-55~---7-7-77-7-7-|

Drums only

Chorus (x1)

Last Chorus
Guitar 1
Eb|---------------------------------------------------------|
Bb|---------------------------------------------------------|
Gb|-2------4------2------4------6---------------------------|
Db|-2------4------2------4------6------6------7------9------|
Ab|-0(x16)-2(x16)-0(x16)-2(x16)-4(x16)-6------7------9------|
Eb|------------------------------------4(x16)-5(x16)-7(x64)-|

Guitar 2
Eb|-0------0------0------0-----0-----0-----0-----0-----0-----0-----|
Bb|-2(x13)-0(x3)--2(x13)-0(x3)-2(x4)-0(x4)-4(x4)-5(x4)-2(x4)-0(x4)-|
Gb|----------------------------------------------------------------|
Db|----------------------------------------------------------------|
Ab|----------------------------------------------------------------|
Eb|----------------------------------------------------------------|

Eb|-------------------------|
Bb|4(x4)-5(x4)-4(x4)-5(x4)--|
Gb|-------------------------|
Db|-------------------------|
Ab|-------------------------|
Eb|-------------------------|

Intro(x4)
Tap to rate this tab
# A B C D E F G H I J K L M N O P Q R S T U V W X Y Z