Song name
# A B C D E F G H I J K L M N O P Q R S T U V W X Y Z

Gob - Can I Resist tab

GOB - Can I Resist

Intro part 1 (Light distortion)
e|--------------------------------------|
b|--------------------------------------|
g|--------------------------------------|  x2
d|--6-6--6-6--6-6--6-6-6--8-8--4-4------|
a|--6-6--6-6--6-6--6-6-6--8-8--4-4------|
E|--4-4--4-4--4-4--4-4-4--6-6--2-2------|

part 2 (phatty distortion)
e|--------------------------------------|
b|--------------------------------------|
g|--------------------------------------|  x2
d|--6-6--6-6--6-6--6-6-6--8-8--4-4------|
a|--6-6--6-6--6-6--6-6-6--8-8--4-4------|
E|--4-4--4-4--4-4--4-4-4--6-6--2-2------|

verse (Light distortion)
e|--------------------------------------|
b|--------------------------------------|
g|--------------------------------------|  x2
d|--6-6--6-6--6-6--6-6-6--8-8--4-4------|
a|--6-6--6-6--6-6--6-6-6--8-8--4-4------|
E|--4-4--4-4--4-4--4-4-4--6-6--2-2------|

chorus (distorted)
e|----------------------------------------|
b|----------------------------------------|
g|--------------------6-6-6-6-------------|
d|--6-6-6-6--4-4-4-4--6-6-6-6--6-6-6-6----|
a|--6-6-6-6--4-4-4-4--4-4-4-4--6-6-6-6----|
E|--4-4-4-4--2-2-2-2-----------4-4-4-4----|

this is the second part of the chorus
e|----------------------------------------|
b|----------------------------------------|
g|--------------------6-6-6-6-------------|
d|--6-6-6-6--4-4-4-4--6-6-6-6--8-8-8-8----|  x2
a|--6-6-6-6--4-4-4-4--4-4-4-4--8-8-8-8----|
E|--4-4-4-4--2-2-2-2-----------6-6-6-6----|
                                hold this the second time around 

there's no way i'm gonna do the solo, although it's really cool.
if anybody can figure it out, please do.

peace y'all
Tap to rate this tab
# A B C D E F G H I J K L M N O P Q R S T U V W X Y Z