Guitaretab - guitar tabs
Song name
# A B C D E F G H I J K L M N O P Q R S T U V W X Y Z
Home / G / Gob / Ming Tran tab

Gob - Ming Tran tab

Gob - Ming Tran

Intro/ Chorus
b :---------------------------------------------------------|
e :---------------------------------------------------------|
G:----------------------------------------------------------|
D:--666--22----666--22--44----------------------------------|
A:--666--22----666--22--44----------------------------------|
E:--444--00----444--00--22----------------------------------|x2

Verse 1
b: ------------------------------------------------------|
e: ------------------------------------------------------|
G: -------------4444-------------------------------------|
D: -6666--2222--4444--4444-------------------------------|
A: -6666--2222--2222--4444-------------------------------|
E: -4444--0000--------2222-------------------------------|x2
P.M..........................
[ Tab from: http://www.guitaretab.com/g/gob/31831.html ]
Verse 2
b: ----------------------------------------------------------------|
e: --4444444444444444-22222222-------------------------------------|
G: ----------------------------------------------------------------|
D: ----------------------------------------------------------------|
A: ----------------------------------------------------------------|
E: ----------------------------------------------------------------|x3

Fill 1 for backup guitar
b: -------------------------|
e: --4570--4572-------------|
G: -------------------------|
D: -------------------------|
A: -------------------------|
E: -------------------------|

Bridge guitar A
b: --11-2-1--11-2-1--11-2-1-4-2-1-2-: --7-14-12-11------|
e: --11-2-1--11-2-1--11-2-1-4-2-1-2-: --7-14-12-10------|
G: ---------------------------------: ------------------|
D: ---------------------------------: ------------------|
A: ---------------------------------:x2 ----------------|
E: ---------------------------------: ------------------|

Bridge for guitar b
b----------------:------------------|
e----------------:------------------|
G----------------:----10----6-------|
D----------------:----10----6-------|
A---pick scrape--:-----8x8--4x8-----|
E----------------:------------------| x4
Order:
Intro
Verse 1
Chorus
Verse 2
Chorus
Fill 2x2
A bunch of fill 1
Chorus
Related for Ming Tran tab