Guitaretab - guitar tabs
Song name
# A B C D E F G H I J K L M N O P Q R S T U V W X Y Z

Gob - Give Up The Grudge tab

Standard Tuning

Intro
e|------------------------------------------|
b|------------------------------------------|
g|8-8-8---6-6-6---5-5-5---3-3-3-------------|
D|8-8-8---6-6-6---5-5-5---3-3-3---6-6---5-5-|
A|6-6-6---4-4-4---3-3-3---1-1-1---6-6---5-5-|
E|--------------------------------4-4---3-3-| x 2 (Second time the last power chord is 
played once)

Part before verse with effect

e|-------------|
b|----4-4----4-|
g|-------------|
D|1-1-----1----|
A|-------------|
E|-------------| x 4

Prechorus

e|--------------------------------------------------------------------------|
b|--------------------------------------------------------------------------|
g|--------------------------------------------------------------------------|
D|88888888----------88888888----------88888888----------66666666-1010101010-|
A|66666666-88888888-66666666-88888888-66666666-88888888-44444444--8-8-8-8-8-|
E|---------66666666----------66666666----------66666666---------------------|
PM.................................   ..........................

Chorus

e|-----------------------------------------------------|
b|-----------------------------------------------------|
g|-----------------------------------------------------|
D|12-12-12-13-13-13-13-13------12-12-12-10-10-10-10-10-|
A|10-10-10-11-11-11-11-11-(x3)-10-10-10--8--8--8--8--8-|
E|-----------------------------------------------------|

e|-----------------------------------------------------|
b|-----------------------------------------------------|
g|-----------------------------------------------------|
D|12-12-12-13-13-13-13-13------12-12-12-12-10-10-10-10-|
A|10-10-10-11-11-11-11-11-(x3)-10-10-10-10--8--8--8--8-|
E|-----------------------------------------------------|

e|-----------------------------------|
b|-----------------------------------|
g|-----------------------------------|
D|88888888-88888888-88888888-8812128-|
A|66666666-66666666-66666666-6610106-|
E|-----------------------------------|
PM.............................

2nd Verse

e|-------------|
b|----4-4----4-|
g|-------------|
D|1-1-----1----|
A|-------------| x 8

Prechorus

Chorus

Solo
[ Tab from: http://www.guitaretab.com/g/gob/33665.html ]
e|----------------------------------------------------------------------------------|
b|----------------------------------------------------------------------------------|
g|---------------------10-12----10-12-13-12-10----------10-12-----10-12-13-12-10----|
D|13-13-13-13-13-13-13-------------------------13-13-13--------------------------13-|
A|----------------------------------------------------------------------------------|
E|----------------------------------------------------------------------------------|

e|11-11-11-13-15-----15-15-13-11-13-11---11--11------------------------|
b|----------------------------------------------14-13-11--13-11--------|
g|--------------------------------------------------------------13--12-|
D|---------------------------------------------------------------------|
A|---------------------------------------------------------------------|
E|---------------------------------------------------------------------|

e|---11-11----11-11------16p14p11----11-------------------------|
b|11-------14-------14------------14----14p13p11-13h14p13p11----|
g|-----------------------------------------------------------13-|
D|--------------------------------------------------------------|
A|--------------------------------------------------------------|
E|--------------------------------------------------------------|

Interlude

e|-------------------------------------|
b|-------------------------------------|
g|-------------------------------------|
D|88866666-88866666-888666666-55533333-|
A|66644444-66644444-666444444-33311111-|
E|-------------------------------------| x 2
PM.....................................

e|------------------------------------------------------|
b|------------------------------------------------------|
g|------------------------------------------------------|
D|8---8---8---8---8---8---8---8---8---8---8---8---8---8-|
A|6---6---6---6---6---6---6---6---6---6---6---6---6---6-| stacato these notes
E|------------------------------------------------------|

e|----------|
b|8-----9---|
g|--8-----8-| x 7 (this is played in the background)
D|----------|
A|----------|
E|----------|

Chorus x 3

Outro

e|---------------------------------------|
b|---------------------------------------|
g|8-8-8---6-6-6---5-5-5---3-3-3----------|
D|8-8-8---6-6-6---5-5-5---3-3-3---6-6--5-|
A|6-6-6---4-4-4---3-3-3---1-1-1---6-6--5-|
E|--------------------------------4-4--3-|

I'm sure this is right or most of it any way. Any corrections please let me know at 
Enjoy
Related for Give Up The Grudge tab