Song name
# A B C D E F G H I J K L M N O P Q R S T U V W X Y Z

Gob - 256 E Broadway tab

236 E. Broadway
Band: Gob
Album: How Far Shallow Takes You
Tuning: Drop-D
Pedals: Distortion
Tabbed by: Dana Corrigan (fatty_boy@hotmail.com)

Intro:

e|-----------------------|
B|-----------------------|
G|-----------------------|
D|-3--------3-3-3--------|
A|-3--------3-3-3--------|
D|-3--------3-3-3--------|
Ring out P.M Ring Out

Riff #1:

e|----------------------|
B|----------------------|
G|----------------------|
D|--6-6--4-4--3-3-3-3-3-|
A|--6-6--4-4--3-3-3-3-3-|
D|--6-6--4-4--3-3-3-3-3-|

Riff #2

e|----------------------|
B|----------------------|
G|-----------------5-5--|
D|--6-6--4-4--3-3--5-5--|
A|--6-6--4-4--3-3--3-3--|
D|--6-6--4-4--3-3-------|

Chorus:

e|-----------------------------|
B|-----------------------------|
G|---------5-5-----------------|
D|--3-3-3--5-5--3-3--6-6--4-4--|
A|--3-3-3--3-3--3-3--6-6--4-4--|
D|--3-3-3-------3-3--6-6--4-4--|

That's it so piece it together and live with it!
Tap to rate this tab
# A B C D E F G H I J K L M N O P Q R S T U V W X Y Z