Guitaretab - guitar tabs
Song name
# A B C D E F G H I J K L M N O P Q R S T U V W X Y Z

Gob - Nothing New tab

NOTHING NEW - Gob


By: RED (pamf30@hotmail.com)

INTRO:
e|---------------------------------------------------------------------------|
B|---------------------------------------------------------------------------|
G|----------3-5---5-3-----------------------------3-5---5-3------------------|
D|----5-6---------------6-5---6-5-----------5-6---------------6-5---8-6-5----|
A|--3-----4-----------6-----6-----6-------3-----4-----------6-----6----------|
E|--------------4-------------------------------------4----------------------|
[ Tab from: http://www.guitaretab.com/g/gob/38982.html ]
VERSE and CHORUS:
e|---------------------------------------------------------------------------|
B|---------------------------------------------------------------------------|
G|-----5--6-----8------------------------------------------------------------|
D|-----5--6--6--8------------------------------------------------------------|
A|-----3--4--6--6------------------------------------------------------------|
E|-----------4---------------------------------------------------------------|

BRIDGE:
e|---------------------------------------------------------------------------|
B|---------------------------------------------------------------------------|
G|-----5--6--8--------THEN---5--6-----8---THE LAST TIME----------------------|
D|-----5--6--8--3------------5--6--6--8--------------------------------------|
A|-----3--4--6--3------------3--4--6--6--------------------------------------|
E|--------------1------------------4-----------------------------------------|
Related for Nothing New tab