Guitaretab - guitar tabs
Song name
# A B C D E F G H I J K L M N O P Q R S T U V W X Y Z
Home / G / Gob / Fido Dildo tab

Gob - Fido Dildo tab

Song: Fido Dildo
Band: Gob
Tabbed By: Lyle (gob_nofx_dude@hotmail.com)
http://www.hammie.homestead.com
[ Tab from: http://www.guitaretab.com/g/gob/38987.html ]
Intro:do twice     
e|guit(1)------|guit(2)-----------------------------------------------|
B|-------------|------------------------------------------------------|
G|-9---9-------|------------------------------------------------------|
D|-9-9-9-9-7-6-|--9-9bend-9--9-8-9-8-9-8------------------------------|
A|-7-9-7-9-7-6-|------------------------------------------------------|
E|---7---7-5-4-|------------------------------------------------------|
Verse:                          |Chorus:
e|------------------------------|-------------------------------------|
B|------------------------------|-------------------------------------|
G|-9--------------9-------------|-------------------------------------|
D|-9-9------------9-9-7---------|----6-7-------------9----------------|
A|-7-9------------7-9-7---------|-2--6-7-------------9----------------|
E|---7-do-4-times---7-5-do-once-|-0--4-5-do-3-times--7----------------|

Bridge:          |last 2 notes of song
e|---------------|----------------------------------------------------|
B|---------------|----------------------------------------------------|
G|-6---6---6---4-|----------------------------------------------------|
D|-6-6-6-6-6-5-4-|-6--------------------------------------------------|
A|-4-6-4-6-4-5-2-|-6-2------------------------------------------------|
E|---4---4---3---|-4-0------------------------------------------------|

Intro,Verse,Chorus,Intro,Verse,Chorus,Bridge,Chorus,
Related for Fido Dildo tab