Song name
# A B C D E F G H I J K L M N O P Q R S T U V W X Y Z

Gob - Lobster Boy tab

Song: Lobster Boy
Band: Gob
Tabbed by: Lyle (gob_nofx_dude@hotmail.com)


Intro:do twice      |do once
e|gui(1)------------|gui(2)-------------------------------------------|
B|------------------|-------------------------------------------------|
G|-9---4-3---9-11---|-4-6-4-6-8-6-4-4-------3-4-----------------------|
D|-9-4-4-3-6-9-11-9-|-----------------6-8-6---------------------------|
A|-7-4-2-1-6-7-9--9-|-------------------------------------------------|
E|---2-----4------7-|-------------------------------------------------|

Verse:                                |Chorus:
e|------------------------------------|-------------------------------|
B|------------------------------------|-------------------------------|
G|-9---4-3---9-11-------------9-11----|-4-----------------------------|
D|-9-4-4-3-6-9-11-9-----------9-11-9--|-4-4---4-----------------------|
A|-7-4-2-1-6-7-9--9-----------7-9--9--|-2-4-2-4-----------------------|
E|---2-----4------7-d0-twice-------7--|---2-0-2-----------------------|

Intro,Verse,Chorus,Verse,Chorus,Verse,
Tap to rate this tab
# A B C D E F G H I J K L M N O P Q R S T U V W X Y Z