Song name
# A B C D E F G H I J K L M N O P Q R S T U V W X Y Z

Gob - Suds tab

Gob - Suds
Tabbed By: Kevin Bisop
EMail: kevinjbishop@hotmail.com


Figure out the strumming for yourself. I don't have the second guitar 
part on here because im to lazy to figure it out. 

Intro/Verse

Eb|---------------------------|
Bb|---------------------------|
Gb|--------------6------------|
Db|--2--4--4--4--6--7---------|
Ab|--2--4--4--4--4--7---------|
Eb|--0--2--0--2-----5---------|


Chorus

Eb|-------------------------------|
Bb|-------------------------------|
Gb|--------------6-6--------------|
Db|---2-----4-4--6-6--7-7--9-9----|   
Ab|---2-----4-4--4-4--7-7--9-9----|
Eb|---0-----2-2-------5-5--7-7----|
PM  .....|
Tap to rate this tab
# A B C D E F G H I J K L M N O P Q R S T U V W X Y Z