Guitaretab - guitar tabs
Song name
# A B C D E F G H I J K L M N O P Q R S T U V W X Y Z
Home / G / Gob / Other Way tab

Gob - Other Way tab

#----------------------------------PLEASE NOTE---------------------------------#
#This file is the author's own work and represents their interpretation of the #
#song. You may only use this file for private study, scholarship, or research. #
#------------------------------------------------------------------------------#

Song: The Other Way
Band: Gob
Tabbed by: Mit (send_in_the_klowns@hotmail.com)

Intro:
e|---------------------------------------|----------------------------|
B|---------------------------------------|----------------------------|
G|------------------|-7-9-11-12-14-12-11-|----------------------------|
D|bass--------------|-7-9-11-12-14-12-11-|----------------------------|
A|-5-7-9-10-12-10-9-|-5-7-9--10-12-10-9--|----------------------------|
E|------------------|--------------------|----------------------------|
[ Tab from: http://www.guitaretab.com/g/gob/38992.html ]
Verse:
e|--------------------------------------------------------------------|
B|--------------------------------------------------------------------|
G|-7---7-12-11-12--7---7-12-11---4---4--9-7-9--4---4-9-7--------------|
D|-7-7-7-12-11-12--7-7-7-12-11---4-2-4--9-7-9--4-2-4-9-7--------------|
A|-5-7-5-10-9--10--5-7-5-10-9----2-0-2--7-5-7--2-0-2-7-5--------------|
E|---5---------------5---------,--------------------------------------|

Chorus:
e|--------------------------------------------------------------------|
B|--------------------------------------------------------------------|
G|---7---5------------------------------------------------------------|
D|-5-7-7-5------------------------------------------------------------|
A|-5-5-7-3------------------------------------------------------------|
E|-3---5--------------------------------------------------------------|

Solo:
e|--------------------------------------------------------------------|
B|----------------------------3-2-3--3-2-3--3-2-3--3-2---3------------|
G|-4-2-4--4-2-4--4-2-4--5-4-2--------------------------3--------------|
D|--------------------------------------------------------------------|
A|--------------------------------------------------------------------|
E|--------------------------------------------------------------------|

Intro,Verse,Chorus,Intro,Verse,Chorus,Solo/Chorus
Related for Other Way tab