Guitaretab - guitar tabs
Song name
# A B C D E F G H I J K L M N O P Q R S T U V W X Y Z

Gob - Desktop Breaking tab

                            Desktop Breaking


Tabbed by: Craig Sauers take_on_me3141@hotmail.com
Tuning: standard (EADGBE)
Artist: Gob
Album: The World According to Gob


Intro "And her body bleeds too much..."
Enter second time

---------------------------------------------------------------|
---------------------------------------------------------------|
---*-*---*-*---*----*-*---*---*---------------------*-*---*---*|
-4-4-4-4-4-4-4-4--6-6-6-6-6-6-6----*-*---*-*---*--9-9-9-9-9-9-9| X2
-4-4-4-4-4-4-4-4--6-6-6-6-6-6-6--6-6-6-6-6-6-6-6--9-9-9-9-9-9-9|
-2-2-2-2-2-2-2-2--4-4-4-4-4-4-4--6-6-6-6-6-6-6-6--7-7-7-7-7-7-7|
---------------------------------4-4-4-4-4-4-4-4---------------|

Second time through before prechorus end with

--------------|
--------------|
--------------|
-9-9-9--------|
-9-9-9--------|
-7-7-7--------|
--------------|


Prechorus "She needs to..."

-----------------------------------------|
-----------------------------------------|
----------------6-6---------------4-4-4--|
-2-2--4-4-4-4-4-6-6-6-6-2-2-2-2-2-4-4-4--|   X4
-2-2--4-4-4-4-4-4-4-6-6-2-2-2-2-2-2-2-2--|
-0-0--2-2-2-2-2-----4-4-0-0-0-0-0--------|


Verse... same part as Intro

2nd verse entering third time through
[ Tab from: http://www.guitaretab.com/g/gob/38995.html ]
-11--------11----11---12-11-7--|
----12~-------12---12----------|
--------11---------------------|
-------------------------------|   X2
-------------------------------|
-------------------------------|

Chorus "Desktop breaking..."

-------------------------------------------------------------------|
-------------------------------------------------------------------|
-4-4-4-4-4-4-4-4-6-6-6-6-6-6-6-6-----------------------------------|
-4-4-4-4-4-4-4-4-6-6-6-6-6-6-6-6-6-6-6-6-6-6-6-6-2-2-2-2-2-2-2-2---|  X2
-2-2-2-2-2-2-2-2-4-4-4-4-4-4-4-4-6-6-6-6-6-6-6-6-2-2-2-2-2-2-2-2---|
---------------------------------4-4-4-4-4-4-4-4-0-0-0-0-0-0-0-0---|


Bridge "And her body bleeds too much..."
Play the same as the Intro part


Final two times chorus

-------------------------------------------------------------------|
-------------------------------------------------------------------|
-6-6-6-6-6-6-6-6-8-8-8-8-8-8-8-8-----------------------------------|
-6-6-6-6-6-6-6-6-8-8-8-8-8-8-8-8-8-8-8-8-8-8-8-8-4-4-4-4-4-4-4-4---| X2
-4-4-4-4-4-4-4-4-6-6-6-6-6-6-6-6-8-8-8-8-8-8-8-8-4-4-4-4-4-4-4-4---|
---------------------------------6-6-6-6-6-6-6-6-2-2-2-2-2-2-2-2---|


End
---
---
-6-
-6-
-4-
---


Order

Intro X2
Prechorus X4
Verse X4
Prechorus X4
Chorus X2
Bridge X2
Chorus X2
Change of Pitch Chorus X2
End
Related for Desktop Breaking tab
Advertisement will be closed in 10 seconds