Guitaretab - guitar tabs
Song name
# A B C D E F G H I J K L M N O P Q R S T U V W X Y Z
Home / G / Gob / Cold Feet tab

Gob - Cold Feet tab

Band: Gob
Song: Cold Feet
Album: Foot In Mouth Disease


This is just a rough sorta guide to how the song is played. There are 2 guitars but this 
is just for the one.
It may not be 100 percent, but it's pretty damn close. As I said,  it's just a rough 
guide. I haven't been
able to find a tab for this song anywhere, so I hope this is useful to someone other than me.

Intro: Guitar only
E:----------------------------------------------------------------------|
B:---------.-.-.-.-------.-.-.-.-------.-.-------.-.-.-.-------.-.-.-.--|
G:----6-6--6-6-6-6--6-6--6-6-6-6--6-6--6-6--6-6--6-6-6-6--6-6--6-6-6-6--|
D:----6-6--6-6-6-6--6-6--6-6-6-6--6-6--6-6--6-6--6-6-6-6--6-6--6-6-6-6--|
A:----4-4--4-4-4-4--4-4--4-4-4-4--4-4--4-4--4-4--4-4-4-4--4-4--4-4-4-4--|
E:----------------------------------------------------------------------|


                 *Everything else comes in here
E:-----------------------------------------------------------------------|
B:---------.-.---*----.-.-.-.-------.-.-.-.-------.-.-------.-.-.-.------|
G:----6-6--6-6---6-6--6-6-6-6--6-6--6-6-6-6--6-6--6-6--6-6--6-6-6-6------|
D:----6-6--6-6---6-6--6-6-6-6--6-6--6-6-6-6--6-6--6-6--6-6--6-6-6-6------|
A:----4-4--4-4---4-4--4-4-4-4--4-4--4-4-4-4--4-4--4-4--4-4--4-4-4-4------|
E:-----------------------------------------------------------------------|


	                    *Verse Starts
E:----------------------------------------------------------------------|
B:---------.-.-.-.-------*-----.-.-.-.-------.-.-.-.--------------------|
G:----6-6--6-6-6-6--6-6---6-6--6-6-6-6--6-6--6-6-6-6--6-6---------------|
D:----6-6--6-6-6-6--6-6---6-6--6-6-6-6--6-6--6-6-6-6--6-6---4-4---------|
A:----4-4--4-4-4-4--4-4---4-4--4-4-4-4--4-4--4-4-4-4--4-4---4-4---------|
E:----------------------------------------------------------2-2---------|

E:--------------------------------------------------------------------|
B:--------------------------------------------------------------------|
G:----.-.-.-.-------.-.-.-.------------.-.-.-.-------.-.-.-.----------|
D:----4-4-4-4--4-4--4-4-4-4--4-4--6-6--6-6-6-6--6-6--6-6-6-6--6-6-----|
A:----4-4-4-4--4-4--4-4-4-4--4-4--6-6--6-6-6-6--6-6--6-6-6-6--6-6-----|
E:----2-2-2-2--2-2--2-2-2-2--2-2--4-4--4-4-4-4--4-4--4-4-4-4--4-4-----|

E:-------------------------------------------------------------------|
B:------------------------------------------.-.-.-.-------.-.-.-.----|
G:----3-3-3-3--------------------------6-6--6-6-6-6--6-6--6-6-6-6----|
D:----3-3-3-3--3-3-3-3--4-4-4-4-4-4-4--6-6--6-6-6-6--6-6--6-6-6-6----|
A:----1-1-1-1--3-3-3-3--4-4-4-4-4-4-4--4-4--4-4-4-4-4-4--4-4-4-4----|
E:-------------1-1-1-1--2-2-2-2-2-2-2--------------------------------|

E:---------------------------------------------------------------------|
B:---------------------------------------------------------------------|
G:----6-6-------.-.-.-.-------.-.-.-.------------.-.-.-.---------------|-.-.-.
D:----6-6--4-4--4-4-4-4--4-4--4-4-4-4--4-4--6-6--6-6-6-6--6-6--6-6-6-6-|
A:----4-4--4-4--4-4-4-4--4-4--4-4-4-4--4-4--6-6--6-6-6-6--6-6--6-6-6-6-|
E:---------2-2--2-2-2-2--2-2--2-2-2-2--2-2--4-4--4-4-4-4--4-4--4-4-4-4-|
[ Tab from: http://www.guitaretab.com/g/gob/54407.html ]
E:------------------------------------------|
B:------------------------------------------|
G:---------3-3-3-3--------------------------|
D:----6-6--3-3-3-3--3-3-3-3--4-4-4-4-4-4-4--|
A:----6-6--1-1-1-1--3-3-3-3--4-4-4-4-4-4-4--|
E:----4-4-----------1-1-1-1--2-2-2-2-2-2-2--|


Chorus
E:---------------------------------|
B:---------------------------------|
G:---------6-----------------------|
D:---4-----6-x8--6-----8-----6-----|  x2
A:---4-x8--4-----6-x8--8-x4--6-x4--|
E:---2-----------4-----6-----4-----|


Verse 2 (Careful of timing, kinda weird)
E:--------------------------------------------------------------------|
B:--------------------------------------------------------------------|
G:----6-6--6-6--6-6--------------------------------3-3-3-3------------|
D:----6-6--6-6--6-6--4-4--4-4--4-4--6-6--6-6--6-6--3-3-3-3-3-3-3-3---|
A:----4-4--4-4--4-4--4-4--4-4--4-4--6-6--6-6--6-6--1-1-1-1--3-3-3-3---|
E:-------------------2-2--2-2--2-2--4-4--4-4--4-4-----------1-1-1-1---|

E:-------------------------------------------------------------------------|
B:--------------------.----------------------------------------------------|
G:--------------------6------.------.------3-3-3-3-------------------------|
D:----4-4-4-4-4-4-4---6-x16--4------6------3-3-3-3--3-3-3-3--4-4-4-4-4-4-4-|
A:----4-4-4-4-4-4-4---4------4-x16--6-x16--1-1-1-1--3-3-3-3--4-4-4-4-4-4-4-|
E:----2-2-2-2-2-2-2----------2------4---------------1-1-1-1--2-2-2-2-2-2-2-|

Chorus again
E:---------------------------------|
B:---------------------------------|
G:---------6-----------------------|
D:---4-----6-x8--6-----8-----6-----|  x4
A:---4-x8--4-----6-x8--8-x4--6-x4--|
E:---2-----------4-----6-----4-----|
Bridge
E:----------------------------------------|
B:----------------------------------------|
G:----3-3-3-3-----------------------------|
D:----3-3-3-3--3-3-3-3--4-4-4-4--6-6-6----|
A:----1-1-1-1--3-3-3-3--4-4-4-4-6-6-6x2-|
E:-------------1-1-1-1--2-2-2-2--4-4-4----|

E:----------------------------------------|
B:----------------------------------------|
G:----5-5-5-5-----------------------------|
D:----5-5-5-5--5-5-5-5--6-6-6-6--8-8-8----|
A:----3-3-3-3--5-5-5-5--6-6-6-6--8-8-8-x2-|
E:-------------3-3-3-3--4-4-4-4--6-6-6----|


Verse: Guitar Only

E:-----------------------------------------------------------------|
B:---*-----.-.-.-.-------.-.-.-.-----------------------------------|
G:---6-6--6-6-6-6--6-6--6-6-6-6--6-6--------.-.-.-.-------.-.-.-.--|
D:---6-6--6-6-6-6--6-6--6-6-6-6--6-6---4-4--4-4-4-4--4-4--4-4-4-4--|
A:---4-4--4-4-4-4--4-4--4-4-4-4--4-4---4-4--4-4-4-4--4-4--4-4-4-4--|
E:-------------------------------------2-2--2-2-2-2--2-2--2-2-2-2--|

E:----------------------------------------------------------------------|
B:----------------------------------------------------------------------|
G:--------.-.-.-.-------.-.-.-.--------3-3-3-3--------------------------|
D:---6-6--6-6-6-6--6-6--6-6-6-6--6-6---3-3-3-3--3-3-3-3--4-4-4-4-4-4-4--|
A:---6-6--6-6-6-6--6-6--6-6-6-6--6-6---1-1-1-1--3-3-3-3--4-4-4-4-4-4-4--|
E:---4-4--4-4-4-4--4-4--4-4-4-4--4-4------------1-1-1-1--2-2-2-2-2-2-2--|

Key Change
E:------------------------------------|
B:------------------------------------|
G:----------8-------------------------|
D:----6-----8-x8--8-----10-----8------|  x8
A:----6-x8--6-----8-x4--10-x4--8-x4---|
E:----4-----------6-----8------6------|

Last Time
E:---------------------------------------|
B:---------------------------------------|
G:----------8----------------------------|
D:----6-----8-x8--8-----10-----8-----10--|
A:----6-x8--6-----8-x8--10-x3--8-x3--10--|
E:----4-----------6-----8------6-----8---|
Related for Cold Feet tab