Song name
# A B C D E F G H I J K L M N O P Q R S T U V W X Y Z

Gob - This Evil World tab

Song: This Evil World
Artist: Gob
Album: Foot in Mouth Disese

Time Signature: 4/4
Tuning: Eb

Key:

Slide Up: /
Slide Down: \
Mute String: x

Okey... This is my favoutite song off of FIMD.
Here We Go...

Intro:
  Q Q Q Q Q Q Q Q E (Same Throughout Verses)
|------------------|
|------------------|
|-4-4-4-4-4-4-4-4-2|
|-4-4-4-4-4-4-4-4-2|
|------------------|
|------------------|

|------------------|-----------------|
|------------------|-----------------|
|-4-4-4-4-4-4-4-4-2|-----------------|
|-4-4-4-4-4-4-4-4-2|4-4-4-4-4-4-4-4-4|
|------------------|4-4-4-4-4-4-4-4-4|
|------------------|-----------------|

|------------------|-----------------|
|------------------|-----------------|
|--------------7-7-|--------------7-7|
|5-5-5-5-5-5-5-7-7-|5-5-5-5-5-5-5-7-7|
|5-5-5-5-5-5-5-----|5-5-5-5-5-5-5----|
|------------------|-----------------|

|------------------|-----------------|
|------------------|-----------------|
|------------------|-----------------|
|7-7-7-7-7-7-7-5-5-|4-4-4-4-4-4-4-4--|
|7-7-7-7-7-7-7-5-5-|4-4-4-4-4-4-4-4--|
|------------------|-----------------|

Verse:
|------------------|-----------------|
|------------------|-----------------|
|-4-4-4-4-4-4-4-4-2|-----------------|
|-4-4-4-4-4-4-4-4-2|4-4-4-4-4-4-4-4-4|
|-2-2-2-2-2-2-2-2-0|4-4-4-4-4-4-4-4-4|
|------------------|2-2-2-2-2-2-2-2-2|

|------------------|-----------------|
|------------------|-----------------|
|--------------7-7-|--------------7-7|
|5-5-5-5-5-5-5-7-7-|5-5-5-5-5-5-5-7-7|
|5-5-5-5-5-5-5-5-5-|5-5-5-5-5-5-5-5-5|
|3-3-3-3-3-3-3-----|3-3-3-3-3-3-3----|

|------------------|-----------------|
|------------------|-----------------|
|------------------|-----------------|
|7-7-7-7-7-7-7-5-5-|4-4-4-4-4-4-4-4--|
|7-7-7-7-7-7-7-5-5-|4-4-4-4-4-4-4-4--|
|5-5-5-5-5-5-5-3-3-|2-2-2-2-2-2-2-2--|

|------------------|-----------------|
|------------------|-----------------|
|-4-4-4-4-4-4-4-4-2|-----------------|
|-4-4-4-4-4-4-4-4-2|4-4-4-4-4-4-4-4-4|
|-2-2-2-2-2-2-2-2-0|4-4-4-4-4-4-4-4-4|
|------------------|2-2-2-2-2-2-2-2-2|

|------------------|-----------------|
|------------------|-----------------|
|--------------7-7-|--------------7-7|
|5-5-5-5-5-5-5-7-7-|5-5-5-5-5-5-5-7-7|
|5-5-5-5-5-5-5-5-5-|5-5-5-5-5-5-5-5-5|
|3-3-3-3-3-3-3-----|3-3-3-3-3-3-3----|

|------------------|-----------------|
|------------------|-----------------|
|------------------|-----------------|
|7-7-7-7-7-7-7-5-5-|4-4-4-4-4-4-4-4--|
|7-7-7-7-7-7-7-5-5-|4-4-4-4-4-4-4-4--|
|5-5-5-5-5-5-5-3-3-|2-2-2-2-2-2-2-2--|

1st Chorus:
  Q Q Q Q   Q Q Q Q   Q Q Q Q   Q Q E Q Q
|---------|---------|---------|-----------|
|---------|---------|---------|-----------|
|---------|-7-7-7-7-|---------|-4-4-5-5-5-|
|-5-5-5-5-|-7-7-7-7-|-2-2-2-2-|-4-4-5-5-5-|
|-5-5-5-5-|-5-5-5-5-|-2-2-2-2-|-2-2-3-3-3-|
|-3-3-3-3-|---------|-0-0-0-0-|-2-2-3-3-3-|

  Q Q Q Q   Q Q Q Q   Q Q Q Q   Q Q E Q Q
|---------|---------|---------|-----------|
|---------|---------|---------|-----------|
|---------|-7-7-7-7-|---------|-4-4-5-5-5-|
|-5-5-5-5-|-7-7-7-7-|-2-2-2-2-|-4-4-5-5-5-|
|-5-5-5-5-|-5-5-5-5-|-2-2-2-2-|-2-2-3-3-3-|
|-3-3-3-3-|---------|-0-0-0-0-|-2-2-3-3-3-|

|---------|---------|
|---------|---------|
|---------|-7-7-----|
|-5-5-5-5-|-7-7-----|
|-5-5-5-5-|-5-5-----|
|-3-3-3-3-|---------|

Post Chorus:
  Q  Q  Q  Q    E  E  E  E  E  E  E  E    E  E  E  E  E  Q 
|-------------|-------------------------|---------------------|
|-------------|-------------------------|---------------------|
|-17-17-17-17-|-17-17-17-17-17-17-17-17-|-17-16-15-14-13-12\--|
|-17-17-17-17-|-17-17-17-17-17-17-17-17-|-17-16-15-14-13-12\--|
|-15-15-15-15-|-15-15-15-15-15-15-15-15-|-15-14-13-12-11-10\--|
|-------------|-------------------------|---------------------|

Verse 2:

|------------------|-----------------|
|------------------|-----------------|
|-4-4-4-4-4-4-4-4-2|-----------------|
|-4-4-4-4-4-4-4-4-2|4-4-4-4-4-4-4-4-4|
|-2-2-2-2-2-2-2-2-0|4-4-4-4-4-4-4-4-4|
|------------------|2-2-2-2-2-2-2-2-2|

|------------------|-----------------|
|------------------|-----------------|
|--------------7-7-|--------------7-7|
|5-5-5-5-5-5-5-7-7-|5-5-5-5-5-5-5-7-7|
|5-5-5-5-5-5-5-5-5-|5-5-5-5-5-5-5-5-5|
|3-3-3-3-3-3-3-----|3-3-3-3-3-3-3----|

|------------------|-----------------|
|------------------|-----------------|
|------------------|-----------------|
|7-7-7-7-7-7-7-5-5-|4-4-4-4-4-4-4-4--|
|7-7-7-7-7-7-7-5-5-|4-4-4-4-4-4-4-4--|
|5-5-5-5-5-5-5-3-3-|2-2-2-2-2-2-2-2--|
    E   E   E   E
|------------------|-----------------|
|------------------|-----------------|
|---4---4---4---4--|-----------------|
|---4---4---4---4--|4-4-4-4-4-4-4-4--|
|---2---2---2---2--|4-4-4-4-4-4-4-4--|
|------------------|2-2-2-2-2-2-2-2--|

|------------------|-----------------|
|------------------|-----------------|
|--------------7-7-|--------------7-7|
|5-5-5-5-5-5-5-7-7-|5-5-5-5-5-5-5-7-7|
|5-5-5-5-5-5-5-5-5-|5-5-5-5-5-5-5-5-5|
|3-3-3-3-3-3-3-----|3-3-3-3-3-3-3----|

|------------------|-----------------|
|------------------|-----------------|
|------------------|-----------------|
|7-7-7-7-7-7-7-5-5-|4-4-4-4-4-4-4-4--|
|7-7-7-7-7-7-7-5-5-|4-4-4-4-4-4-4-4--|
|5-5-5-5-5-5-5-3-3-|2-2-2-2-2-2-2-2--|

Chorus 2:

  Q Q Q Q   Q Q Q Q   Q Q Q Q   Q Q E Q Q
|---------|---------|---------|-----------|
|---------|---------|---------|-----------|
|---------|-7-7-7-7-|---------|-4-4-5-5-5-|
|-5-5-5-5-|-7-7-7-7-|-2-2-2-2-|-4-4-5-5-5-|
|-5-5-5-5-|-5-5-5-5-|-2-2-2-2-|-2-2-3-3-3-|
|-3-3-3-3-|---------|-0-0-0-0-|-2-2-3-3-3-|

  Q Q Q Q   Q Q Q Q   Q Q Q Q   Q Q E Q Q
|---------|---------|---------|-----------|
|---------|---------|---------|-----------|
|---------|-7-7-7-7-|---------|-4-4-5-5-5-|
|-5-5-5-5-|-7-7-7-7-|-2-2-2-2-|-4-4-5-5-5-|
|-5-5-5-5-|-5-5-5-5-|-2-2-2-2-|-2-2-3-3-3-|
|-3-3-3-3-|---------|-0-0-0-0-|-2-2-3-3-3-|

  Q Q Q Q   Q Q Q Q   Q Q Q Q   Q Q E Q Q
|---------|---------|---------|-----------|
|---------|---------|---------|-----------|
|---------|-7-7-7-7-|---------|-4-4-5-5-5-|
|-5-5-5-5-|-7-7-7-7-|-2-2-2-2-|-4-4-5-5-5-|
|-5-5-5-5-|-5-5-5-5-|-2-2-2-2-|-2-2-3-3-3-|
|-3-3-3-3-|---------|-0-0-0-0-|-2-2-3-3-3-|

  Q Q Q Q   Q Q Q Q   Q Q Q Q   Q Q E Q Q
|---------|---------|---------|-----------|
|---------|---------|---------|-----------|
|---------|-7-7-7-7-|---------|-4-4-5-5-5-|
|-5-5-5-5-|-7-7-7-7-|-2-2-2-2-|-4-4-5-5-5-|
|-5-5-5-5-|-5-5-5-5-|-2-2-2-2-|-2-2-3-3-3-|
|-3-3-3-3-|---------|-0-0-0-0-|-2-2-3-3-3-|

Post Chorus 2:
  |-3-| |-3-|   |-3-| |-3-|
|-------------|-------------|
|-------------|-------------|
|-------------|-------------|
|-5-5-5-5-5-5-|-4-4-4-4-4-4-|
|-5-5-5-5-5-5-|-4-4-4-4-4-4-|
|-3-3-3-3-3-3-|-2-2-2-2-2-2-|

  |-3-| |-3-|   H     H
|-------------|-------------|
|-------------|-------------|
|-4-4-4-4-4-4-|-4-----5-----|
|-4-4-4-4-4-4-|-4-----5-----|
|-2-2-2-2-2-2-|-2-----3-----|
|-2-2-2-2-2-2-|-2-----3-----|

Solo:
|--------|----------|---------------|---------|
|--------|----------|---------------|---------|
|-7-9-11-|-7-9-11-9-|-11\9/11-11-11-|-9/11\9\7|
|-x-x-x--|-x-x-x--x-|-x--x-x--x--x--|-x-x--x-x|
|-5-7-9--|-5-7-9--7-|-9-\7/9--9--9--|-7/9-\7\5|
|--------|----------|---------------|---------|

|--------|----------|---------------|---------|
|--------|----------|---------------|---------|
|-7-9-11-|-7-9-11-4-|-11\9/11-11-11-|-9/11\9\7|
|-x-x-x--|-x-x-x--x-|-x--x-x--x--x--|-x-x--x-x|
|-5-7-9--|-5-7-9--2-|-9-\7/9--9--9--|-7/9-\7\5|
|--------|----------|---------------|---------|

|-10-12-14-|-10-12-14-12-|-14\12/14-14-14-|-12/14\12\10|
|-x--x--x--|-x--x--x--x--|-x--x--x--x--x--|-x--x--x--x-|
|-7--9--11-|-7--9--11-9--|-11\9-/11-11-11-|-9-/11\9-\7-|
|----------|-------------|----------------|------------|
|----------|-------------|----------------|------------|
|----------|-------------|----------------|------------|

|-10-12-14-|-10-12-14-7--|-7-8-10-|
|-x--x--x--|-x--x--x--x--|-x-x-x--|
|-7--9--11-|-7--9--11-4--|-4-5-7--|
|----------|-------------|--------|
|----------|-------------|--------|
|----------|-------------|--------|

3rd Verse: No Guitar
3rd Chorus:(Key Change)

|---------|---------|---------|-----------|
|---------|---------|---------|-----------|
|---------|-8-8-8-8-|---------|-5-5-6-6-6-|
|-6-6-----|-8-8-8-8-|-3-3-3-3-|-5-5-6-6-6-|
|-6-6-----|-6-6-6-6-|-3-3-3-3-|-3-3-4-4-4-|
|-4-4-----|---------|-1-1-1-1-|-3-3-4-4-4-|

|---------|---------|---------|-----------|
|---------|---------|---------|-----------|
|---------|-8-8-8-8-|---------|-5-5-6-6-6-|
|-6-6-6-6-|-8-8-8-8-|-3-3-3-3-|-5-5-6-6-6-|
|-6-6-6-6-|-6-6-6-6-|-3-3-3-3-|-3-3-4-4-4-|
|-4-4-4-4-|---------|-1-1-1-1-|-3-3-4-4-4-|

|---------|---------|---------|-----------|
|---------|---------|---------|-----------|
|---------|-8-8-8-8-|---------|-5-5-6-6-6-|
|-6-6-6-6-|-8-8-8-8-|-3-3-3-3-|-5-5-6-6-6-|
|-6-6-6-6-|-6-6-6-6-|-3-3-3-3-|-3-3-4-4-4-|
|-4-4-4-4-|---------|-1-1-1-1-|-3-3-4-4-4-|

|---------|---------|---------|-----------|
|---------|---------|---------|-----------|
|---------|-8-8-8-8-|---------|-5-5-6-6-6-|
|-6-6-6-6-|-8-8-8-8-|-3-3-3-3-|-5-5-6-6-6-|
|-6-6-6-6-|-6-6-6-6-|-3-3-3-3-|-3-3-4-4-4-|
|-4-4-4-4-|---------|-1-1-1-1-|-3-3-4-4-4-|

Outro:
|---------|---------|---------|-----------|
|---------|---------|---------|-----------|
|---------|-8-8-8-8-|---------|-5-5-6-6-6-|
|-6-6-6-6-|-8-8-8-8-|-3-3-3-3-|-5-5-6-6-6-|
|-6-6-6-6-|-6-6-6-6-|-3-3-3-3-|-3-3-4-4-4-|
|-4-4-4-4-|---------|-1-1-1-1-|-3-3-4-4-4-|

|---------|---------|---------|-----------|
|---------|---------|---------|-----------|
|---------|-8-8-8-8-|---------|-5-5-6-6-6-|
|-6-6-6-6-|-8-8-8-8-|-3-3-3-3-|-5-5-6-6-6-|
|-6-6-6-6-|-6-6-6-6-|-3-3-3-3-|-3-3-4-4-4-|
|-4-4-4-4-|---------|-1-1-1-1-|-3-3-4-4-4-|

|---------|---------|---------|-----------|
|---------|---------|---------|-----------|
|---------|-8-8-8-8-|---------|-5-5-6-6-6-|
|-6-6-6-6-|-8-8-8-8-|-3-3-3-3-|-5-5-6-6-6-|
|-6-6-6-6-|-6-6-6-6-|-3-3-3-3-|-3-3-4-4-4-|
|-4-4-4-4-|---------|-1-1-1-1-|-3-3-4-4-4-|

|---------|---------|---------|-----------|
|---------|---------|---------|-----------|
|---------|-8-8-8-8-|---------|-5-5-6-6-6-|
|-6-6-6-6-|-8-8-8-8-|-3-3-3-3-|-5-5-6-6-6-|
|-6-6-6-6-|-6-6-6-6-|-3-3-3-3-|-3-3-4-4-4-|
|-4-4-4-4-|---------|-1-1-1-1-|-3-3-4-4-4-|

End On:
|------|
|------|
|-5----|
|-5----|
|-3----|
|-3----|

That's it! Hope You Liked it!
Tap to rate this tab
# A B C D E F G H I J K L M N O P Q R S T U V W X Y Z