Guitaretab - guitar tabs
Song name
# A B C D E F G H I J K L M N O P Q R S T U V W X Y Z
Home / G / Gob / Lemon-aid tab

Gob - Lemon-aid tab

x=mute
*=palm mute
h=hammer on
p=pull off
/=slide up
\=slide down
^=bend

Intro: Guitar 1 
 e|-----------------| |---------------------------| 
 B|-----------------| |---------------------------| 
 G|-----------------| |-4-x-----------------------| 
 D|-6\4-6\4-6\4-6\4-| |-4-x-4-4-2-2-2-2-2-6\4-6\4-| 
 A|-6\4-6\4-x\x-x\x-| |-2-x-4-4-2-2-2-2-2-x\x-x\x-| 
 E|-4\2-4\2-4\2-4\2-| |-----2-2-0-0-0-0-0-4\2-4\2-| 

   Guitar 2 (last time on intro)
 e|--------------------------------------------------------------------| 
 B|-9-9-9-9-9-9-9-9-9-9------------------------------------------------| 
 G|---------------------9-8-6-8p6-8h6-8-x-11-11-x-9--------------------| 
 D|--------------------------------------------------------------------| 
 A|--------------------------------------------------------------------| 
 E|--------------------------------------------------------------------|

   Verse                               Then
 e|-------------------------------|   |--------------------------------| 
 B|-------------------------------|   |--------------------------------| 
 G|-------------------------------|X3 |--------------------------------| 
 D|-4-4-4-6-6-6-2-2-2-------------|   |-9-9-9-9-9-9-6-6-6-4-4-4-4-4-4--| 
 A|-2-2-2-4-4-4-0-0-0-2-2-2-2-2-2-|   |-7-7-7-6-6-6-4-4-4-2-2-2-2-2-2--| 
 E|-------------------0-0-0-0-0-0-|   |--------------------------------|
    * * * * * * * * * * * * * * *       * * * * * * * * * * * * * * *
  
   Chorus: Guitar 1
 e|--------------------------------------------------------------------| 
 B|--------------------------------------------------------------------| 
 G|---------4-4------------------------4-4-----------------------------| 
 D|-2-2-2-2-4-4-4-4-4-2-2-2-2--2-2-2-2-4-4-4-4-4-2-2-2-2---------------| 
 A|-2-2-2-2-2-2-4-4-4-2-2-2-2--2-2-2-2-2-2-4-4-4-2-2-2-2---------------| 
 E|-0-0-0-0-----2-2-2-0-0-0-0--0-0-0-0-----2-2-2-0-0-0-0---------------|

   Last time
 e|--------------------------------------------------------------------| 
 B|--------------------------------------------------------------------| 
 G|-----------------4-4-4-4-4-4-4-4-8/9-9-9-9-9-9-9-9-9-9-9-9-9-9-9----| 
 D|-6-6-6-6-6-6-6-6-4-4-4-4-4-4-4-4-x/x-x-x-x-x-x-x-x-x-x-x-x-x-x-x----| 
 A|-6-6-6-6-6-6-6-6-2-2-2-2-2-2-2-2-6/7-7-7-7-7-7-7-7-7-7-7-7-7-7-7----| 
 E|-4-4-4-4-4-4-4-4----------------------------------------------------| 
[ Tab from: http://www.guitaretab.com/g/gob/56615.html ]
  Chorus: Guitar 2
 e|--------------------------------------------------------------------| 
 B|--------------------------------------------------------------------| 
 G|---------4-4------------------------4-4-----------------------------| 
 D|-2-2-2-2-4-4-4-4-4-2-2-2-2--2-2-2-2-4-4-4-4-4-2-2-2-2---------------| 
 A|-2-2-2-2-2-2-4-4-4-2-2-2-2--2-2-2-2-2-2-4-4-4-2-2-2-2---------------| 
 E|-0-0-0-0-----2-2-2-0-0-0-0--0-0-0-0-----2-2-2-0-0-0-0---------------|
 
  Last time
 e|--------------------------------------------------------------------| 
 B|--------------------------------------------------------------------| 
 G|-----------------4-4-4-4-4-4-4-4------------------------------------| 
 D|-6-6-6-6-6-6-6-6-4-4-4-4-4-4-4-4-2-2-2-2-2-2-2-2-2-2-2-2-2-2-2-2----| 
 A|-6-6-6-6-6-6-6-6-2-2-2-2-2-2-2-2-2-2-2-2-2-2-2-2-2-2-2-2-2-2-2-2----| 
 E|-4-4-4-4-4-4-4-4-----------------0-0-0-0-0-0-0-0-0-0-0-0-0-0-0-0----|

   Post chorus: Guitar 1
 e|--------------------------------------------------------------------| 
 B|--------------------------------------------------------------------| 
 G|-8-8-8-8-9-9-9------------8-8-8-8-9-9-9-----------------------------| 
 D|-x-x-x-x-x-x-x-11-11-9-9--x-x-x-x-x-x-x-11-11-9---------------------| 
 A|-6-6-6-6-7-7-7-x--x--x-x--6-6-6-6-7-7-7-x--x--x---------------------| 
 E|---------------9--9--7-7----------------9--9--7---------------------|

   Guitar 2
 e|--------------------------------------------------------------------| 
 B|--------------------------------------------------------------------| 
 G|-4-4-4-4-6-6-6-2-2------4-4-4-4-6-6-6-2-2---------------------------| 
 D|-4-4-4-4-6-6-6-2-2-2-2--4-4-4-4-6-6-6-2-2-2-------------------------| 
 A|-2-2-2-2-4-4-4-0-0-2-2--2-2-2-2-4-4-4-0-0-2-------------------------| 
 E|-------------------0-0--------------------0-------------------------|


  Solo: Guitar 1
 e|----------------------------------------------------------| 
 B|----------------------------------------------------------| 
 G|-8^(9)-9^-9^-9^-9^-9^-8p6---6-------------6h8p6-6---------| 
 D|--------------------------8---8-6-6h8p6-6---------8p6p5-6-| 
 A|----------------------------------------------------------| 
 E|----------------------------------------------------------|

 
 e|---------------------------------------------------------------------| 
 B|-7p6---9p6---7p6---9p6---7p6---9p6---7p6---9p6---8h9-9-9-9-9-9-7-----|
 G|-----6-----6-----6-----6-----6-----6-----6-----6-------------------7-|
 D|---------------------------------------------------------------------| 
 A|---------------------------------------------------------------------| 
 E|---------------------------------------------------------------------|

   Interlude
 e|--------------------------------------------------------------------| 
 B|--------------------------------------------------------------------| 
 G|-------------------------------------------------4-4-4-4-4-4-4-4----| 
 D|-------------------------------------------------2-2-2-2-2-2-2-2----|x4 
 A|-4-4-4-4-4-4-4-4-2-2-2-2-2-2-2-2-6-6-6-6-6-6-6-6--------------------| 
 E|-2-2-2-2-2-2-2-2-0-0-0-0-0-0-0-0-4-4-4-4-4-4-4-4--------------------|
    * * * * * * * * * * * * * * * * * * * * * * * * * * * * * * * * 
Once again, i cant take any credit for this song, the credit goes to stig off of
www.taborama.com for tabbing this out. I just seen there was no lemon-aid tab on
UG so I submitted this one, I hope that you are not offended in any way stig, but
thanx for tabbing this out. peace
Related for Lemon-aid tab