Guitaretab - guitar tabs
Song name
# A B C D E F G H I J K L M N O P Q R S T U V W X Y Z
Home / G / Gob / Uuut tab

Gob - Uuut tab

here's uuut!:D

|-------------------------------------------------------------------------17-|
|-------------------------------------------------------------------17-20----|
|-------------------------------------------------------------17-19----------|
|-------------------------------------------------------17-19----------------|
|-------15-12-14----12-14-15-14-15-17-15-17-19-17-19-20----------------------|
|-12-14----------15----------------------------------------------------------|
[ Tab from: http://www.guitaretab.com/g/gob/61162.html ]
|-20-17-15----------17-15-12-15-12----12-15-12----12-15-12-14-12-15-12-15-17-|
|----------17-15-------------------15b---------15b---------------------------|
|----------------17----------------------------------------------------------|
|----------------------------------------------------------------------------|
|----------------------------------------------------------------------------|
|----------------------------------------------------------------------------|

Well here it is... the enormous fuckin wil solo... so enjoy and please enjoy more=)
Related for Uuut tab