Guitaretab - guitar tabs
Song name
# A B C D E F G H I J K L M N O P Q R S T U V W X Y Z

Gob - License From A Cereal Box tab

Tabbed by:offspring-182
email:Sean-182@hotmail.com
xxxxx=P.M
*****=P.M


Intro
-------------------------------------------------------------|
-------------------------------------------------------------|
-------------------------------------------------------------|
---------------6----6----6--4--6-----------------------------|
(car starting)-6----6----6--4--6------drum solo--------------|
---------------4----4----4--2--4-----------------------------|

Chorus
------------------------------------------------------------|
------------------------------------------------------------|
----------88888------------------6--------------------------|
-88888-66-88888-66-88888-66-3333-6-6------------------------|
-88888-66-66666-66-88888-66-3333-4-6--x2--------------------|
-66666-44-------44-66666-44-1111---4------------------------|
[ Tab from: http://www.guitaretab.com/g/gob/77190.html ]
Verse
-----------------------------------------------------------------|
-----------------------------------------------------------------|
---------------------------------------------------------6-------|
-8--------------------------8xxxxxxxxxxx-6---8xxxxxx-3-3-6-6-----|
-8----- P.M ----------------8xxxxxxxxxxx-6---8xxxxxx-3-3-4-6-----|x2
-6--for a long time---------6xxxxxxxxxxx-4---6xxxxxx-1-1---4-----|

chorus again

gnarley post chorus
------------------------------------------------------|
------------------------------------------------------|
-**--**--**--**--**--**---86-6------------------------|
-888-888-666-666-888-888----8-8764--x2----------------|
-88--88--66--66--88--88-------------------------------|
-66--66--44--44--66--66-------------------------------|

Verse but without long P.M x4
chorus x4
gnarley post chorus

outro
------------------------------------------------------------|
------------------------------------------------------------|
-**-8-6--------------------86-6---------****-8--------------|
-88-------8-6--*****96-------8-8764-x3--8888-8--------------|
-88------------67696---x2---------------8888-6--------------|
-66-------------------------------------6666----------------|
Related for License From A Cereal Box tab