Song name
# A B C D E F G H I J K L M N O P Q R S T U V W X Y Z

God Dethroned - Sigma Enigma tab

Tuning: Standard (E A D G)

Pretty easy song, u can listen to it at their official web-site, goddethroned.com

h=hammer on  p=pull off

Intro. just play to the beat
G|----------------||
D|----------------||
A|----------------||
E|-0-0-0-0-0-0-0-0||

Verse x4
G|--------------------------------||
D|--------------------------------||
A|-000000000000-------------------||
E|--------------3h5-2h3-----------||

Chorus x2
G|------------------------------------------------||
D|------------------------------------------------||
A|------------------------------------------------||
E|-77777777-33333333-0000000000000000-------------||

Verse x4
Chorus x4
Verse x4
Chorus x4

During Solo x2
G|------------------------------------------------||
D|------------------------------------------------||
A|------------------------------------------------||
E|-2222222222222222-0000000000000000--------------||

Still during solo x4
G|------------------------------------------------||
D|------------------------------------------------||
A|------------------------------------------------||
E|-3---3-5-7---7-9-10---7-9-10-9-7-9-7-5-3--------||

Verse x4
Chorus x4
Then play the first part of the solo x2.

End
G|--------------------------------||
D|--------------------------------||
A|--------------------------------||
E|-0-00-0-5--5p3--3p0-------------||
Tap to rate this tab
 
# A B C D E F G H I J K L M N O P Q R S T U V W X Y Z