Guitaretab - guitar tabs
Song name
# A B C D E F G H I J K L M N O P Q R S T U V W X Y Z

God Forbid - Constitution Of Treason tab

The first version was messed up. So here's the right stuff.

...     Palm mute
hb      Half bend

Order >>>>> A, A, B, A, A, B, A, A, C


    d-------------------------------------|
    a-------------------------------------|
A   f-------------------------------------|
    c---8-----------6---------------------|
    g-5-----------5-------------5-8-5-----|
    c-----0-0-000-----0-0-000-6-----------|
          . . ...     . . ...
[ Tab from: http://www.guitaretab.com/g/god-forbid/104277.html ]
    d--------------------------------------------|
    a--------------------------------------------|
B   f--------------------------------------------|
    c--------------------------------------------|
    g------101010-111111-555-----888-999-333-----|
    c--333-------------------111-----------------|
       ... . . .  . . .  ... ... ... ... ...

    d--------------------------------------------|
    a--------------------------------------------|
C   f--------------------------------------------|
    c--------------------------------------------|
    g------101010-111111-555-----888-999-3hb-----|
    c--333-------------------111-----------------|
        ... . . .  . . .  ... ... ... ...
Related for Constitution Of Treason tab
×
Constitution Of Treason