Song name
# A B C D E F G H I J K L M N O P Q R S T U V W X Y Z

God Forbid - Divinity tab

Drop c
E-----------------------------------------------------------------------|
B-----------------------------------------------------------------------|
G-----------------------------------------------------------------------|
D-----------------------------------------------------------------------|
A0000-000------------------3---------3---------3---4p3-3----------------|
E0000-000-1b-4b-5b-7b-0-3-6-6-3-0-3-6-6-3-0-3-6-6-3---6-6-3-------------|
 .... ...             . . ... . . . ... . . . ... .    .. .

E-----------------------------------------------------------------------|
B-----------------------------------------------------------------------|
G-----------------------------------------------------------------------|
D-----------------------------------------------------------------------|
A-----2---------2---------2---3p2-2-------------------------------------|
E0-2-5-5-2-0-2-5-5-2-0-2-5-5-2---5-5-2----------------------------------|
 . . ... . . . ... . . . ... .    .. .

E-----------------------------------------------------------------------|
B-----------------------------------------------------------------------|
G-----------------------------------------------------------------------|
D-----------------------------------------------------------------------|
A------3---------3---------3---4p3-3------------------------------------|
E-0-3-6-6-3-0-3-6-6-3-0-3-6-6-3---6-6-3---------------------------------|
  . . ... . . . ... . . . ... .    .. .

E-----------------------------------------------------------------------|
B-----------------------------------------------------------------------|
G-----------------------------------------------------------------------|
D-----------------------------------------------------------------------|
A-----2---------2---------2---3p2-2-------------------------------------|
E0-2-5-5-2-0-2-5-5-2-0-2-5-5-2---5-5-2----------------------------------|
 . . ... . . . ... . . . ... .    .. .

E-----------------------------------------------------------------------|
B-----------------------------------------------------------------------|
G-----------------------------------------------------------------------|
D-----------------------------------------------------------------------|
A-------12-----13p12--12-------------12-----13p12--12-------------------|
E0-12-14--14-12-----14--14-12-0-12-14--14-12-----14--14-12--------------|
 . .  . . .  .        . .  .  . .  .   .  .        . .  .

E-----------------------------------------------------------------------|
B-----------------------------------------------------------------------|
G-----------------------------------------------------------------------|
D-----------------------------------------------------------------------|
A-------11-----12p11--12-------------11-----12p11--12-------------------|
E0-11-13--13-11-----13--13-11-0-11-13--13-11-----13--13-11--------------|
 . .  . . .  .        . .  .  . .  . . .  .        . .  .

Thats all i got. it effin hard. figure out the rest for me.
Tap to rate this tab
 
# A B C D E F G H I J K L M N O P Q R S T U V W X Y Z