Song name
# A B C D E F G H I J K L M N O P Q R S T U V W X Y Z

God Forbid - End Of The World tab

-------------------------------------------------------------------------------
			     End of The World (Solo)  God Forbid
-------------------------------------------------------------------------------
Tabbed by: Me (haha)
Email: Just PM me
           Please Note: First tab,*Rushed* so NOT 100% right, just what I play, sounds
I suppose it's a 'just be grateful there's finally a solo for this song' situation lol,
at least something to start off with. Thanks.
Tuning: Drop C
e|--------------12-14-16-14-12----------------------------|
B|-----------12----------------15-13-12-//----------------|
G|--14~^~-------------------------------------------------|
D|--------------------------------------------------------|
A|--------------------------------------------------------|
E|--------------------------------------------------------|
(Not totally sure about this, I sometimes play a random *short* arpeggio, even tho 
not right either lol)
e|---------------------------------------------------------------------------------|
B|---------------------------------------------------------------------------------|
G|---------------------------------------------------------------------------------|
D|------9------10-----9---10-9h10p9---9/10-7-9-6-7-6- 6h7p6-6----------------------|
A|--7-7---7-7-----7-7---7--------------------------------------8-5--7~------------|
E|---------------------------------------------------------------------------------|
 Pm|--|  |--|    |--|  |-----------------------------------------------------------|
e|---------------------------------------------------------------------------------|
B|------10------13-----12---1312h13p12--12/13--12-13-10-10h12p10-10-9-------------|
G|--9-9----9-9-----9-9----9--------------------------------------------10-9-7-9*~--|
D|---------------------------------------------------------------------------------|
A|---------------------------------------------------------------------------------|
E|---------------------------------------------------------------------------------|
 Pm|--|    |--|    |--|  |---------------------------------------------------------|     
       (try not to get a really high-pitched sounding pinch)
e|---------------------------------------------------------------------------------|
B|--------------------9-------10--13~~-13--12--10//12~~----------------------------|
G|---9-------10--------------------------------------------------------------------|
D|---------------------------------------------------------------------------------|
A|---------------------------------------------------------------------------------|
E|---------------------------------------------------------------------------------|
     =                =
e|-----------121412161412---------------------------------121412161412----|
B|--12121312--------------12121312-131513171515--12121312-----------------|
G|------------------------------------------------------------------------|
D|------------------------------------------------------------------------|
A|------------------------------------------------------------------------|
E|------------------------------------------------------------------------|
    (Not what he actually plays, this is just improv. That I like to play)

e|-------------------------------------------------------------------|
B|--12121312--131513171513--12---15-17-15-13-13-15-13-12-13-12-10-10-|
G|-------------------------------------------------------------------|
D|-------------------------------------------------------------------|
A|-------------------------------------------------------------------|
E|-------------------------------------------------------------------|
    (Same with this bit, Im pretty sure he plays some open string notes, I just dunno where)
e|----------------------------------------------|
B|--12-10-9-9-10-9-7-7-9-7-5-3*^-^-^-^---------|
G|----------------------------------------------|
D|----------------------------------------------|
A|----------------------------------------------|
E|----------------------------------------------|
          (Semi-Pinch Harmonic w/slow bend)
e|------------------------------------------|
B|------------------------------------------|
G|------------------------------------------|
D|--5+(Dip with whammy, slowly releasing)---|
A|------------------------------------------|
E|------------------------------------------|

************************************
Key:
| /   slide up
| \   slide down
| h   hammer-on
| p   pull-off
| ~   vibrato
| +   harmonic
| ^   Bend
| *   Artificial Harmonic
| =   Tremelo Pick
************************************
Please be nice. Of course, CONSTRUCTIVE criticism is always welcome. I mean, if you get
on slating other people's tabs or seomthing, or disagree then just make your own, I
it's the better option instead of whining :)
Tap to rate this tab
 
# A B C D E F G H I J K L M N O P Q R S T U V W X Y Z