Song name
# A B C D E F G H I J K L M N O P Q R S T U V W X Y Z

God Forbid - Century Fades tab

Band- God Forbid
Song- The Century Fades

Tuning:Drop D

|-0-----0--------------|
|---6-----6------------|
|-----9-----9----------|
|----------------------|
|----------------------|
|----------------------|

|-0-----0-----0------------|
|---6-----6-----6----------|
|-----9-----9-----9--------|
|--------------------------|
|--------------------------|
|--------------------------| 3x

|-----------------------0-----0-----0-----0-----0------|
|-------------------------6-----6-----6-----6-----6----|
|---------------------------9-----9-----9-----9-----9--|
|-2-------2-------2------------------------------------|
|-2---2---2---2---2--2---------------------------------|
|-0---0---0---0---0--0---------------------------------| 4x
      ___     ___    __

|-----------------------|
|-----------------------|
|-----------------------|
|-2-------2-------2-----|
|-2---2---2---2---2--2--|
|-0---0---0---0---0--0--| fades out
      ___     ___    __
and thats it
Tap to rate this tab
# A B C D E F G H I J K L M N O P Q R S T U V W X Y Z